  0
SECTION
  2
HEADER
  9
$ACADVER
  1
AC1015
  9
$ACADMAINTVER
 70
     6
  9
$DWGCODEPAGE
  3
ANSI_1252
  9
$INSBASE
 10
0.0
 20
0.0
 30
0.0
  9
$EXTMIN
 10
0.0
 20
0.0
 30
0.0
  9
$EXTMAX
 10
900.0
 20
600.0
 30
0.0
  9
$LIMMIN
 10
0.0
 20
0.0
  9
$LIMMAX
 10
900.0
 20
600.0
  9
$ORTHOMODE
 70
     0
  9
$REGENMODE
 70
     1
  9
$FILLMODE
 70
     1
  9
$QTEXTMODE
 70
     0
  9
$MIRRTEXT
 70
     1
  9
$LTSCALE
 40
1.0
  9
$ATTMODE
 70
     1
  9
$TEXTSIZE
 40
3.5
  9
$TRACEWID
 40
1.0
  9
$TEXTSTYLE
  7
Standard
  9
$CLAYER
  8
0
  9
$CELTYPE
  6
ByLayer
  9
$CECOLOR
 62
   256
  9
$CELTSCALE
 40
1.0
  9
$DISPSILH
 70
     0
  9
$DIMSCALE
 40
1.0
  9
$DIMASZ
 40
3.302
  9
$DIMEXO
 40
1.0
  9
$DIMDLI
 40
3.75
  9
$DIMRND
 40
0.0
  9
$DIMDLE
 40
0.0
  9
$DIMEXE
 40
1.0
  9
$DIMTP
 40
0.0
  9
$DIMTM
 40
0.0
  9
$DIMTXT
 40
3.5
  9
$DIMCEN
 40
2.5
  9
$DIMTSZ
 40
0.0
  9
$DIMTOL
 70
     0
  9
$DIMLIM
 70
     0
  9
$DIMTIH
 70
     1
  9
$DIMTOH
 70
     1
  9
$DIMSE1
 70
     0
  9
$DIMSE2
 70
     0
  9
$DIMTAD
 70
     1
  9
$DIMZIN
 70
     0
  9
$DIMBLK
  1

  9
$DIMASO
 70
     1
  9
$DIMSHO
 70
     1
  9
$DIMPOST
  1

  9
$DIMAPOST
  1

  9
$DIMALT
 70
     0
  9
$DIMALTD
 70
     3
  9
$DIMALTF
 40
0.0393700787
  9
$DIMLFAC
 40
1.0
  9
$DIMTOFL
 70
     1
  9
$DIMTVP
 40
0.0
  9
$DIMTIX
 70
     0
  9
$DIMSOXD
 70
     0
  9
$DIMSAH
 70
     0
  9
$DIMBLK1
  1

  9
$DIMBLK2
  1

  9
$DIMSTYLE
  2
ISO-25
  9
$DIMCLRD
 70
     0
  9
$DIMCLRE
 70
     0
  9
$DIMCLRT
 70
     0
  9
$DIMTFAC
 40
1.0
  9
$DIMGAP
 40
1.524
  9
$DIMJUST
 70
     0
  9
$DIMSD1
 70
     0
  9
$DIMSD2
 70
     0
  9
$DIMTOLJ
 70
     0
  9
$DIMTZIN
 70
     0
  9
$DIMALTZ
 70
     0
  9
$DIMALTTZ
 70
     0
  9
$DIMUPT
 70
     0
  9
$DIMDEC
 70
     2
  9
$DIMTDEC
 70
     2
  9
$DIMALTU
 70
     2
  9
$DIMALTTD
 70
     3
  9
$DIMTXSTY
  7
Standard
  9
$DIMAUNIT
 70
     0
  9
$DIMADEC
 70
     2
  9
$DIMALTRND
 40
0.0
  9
$DIMAZIN
 70
     0
  9
$DIMDSEP
 70
    44
  9
$DIMATFIT
 70
     3
  9
$DIMFRAC
 70
     0
  9
$DIMLDRBLK
  1

  9
$DIMLUNIT
 70
     2
  9
$DIMLWD
 70
    -2
  9
$DIMLWE
 70
    -2
  9
$DIMTMOVE
 70
     0
  9
$LUNITS
 70
     2
  9
$LUPREC
 70
     2
  9
$SKETCHINC
 40
1.0
  9
$FILLETRAD
 40
10.0
  9
$AUNITS
 70
     0
  9
$AUPREC
 70
     2
  9
$MENU
  1
.
  9
$ELEVATION
 40
0.0
  9
$PELEVATION
 40
0.0
  9
$THICKNESS
 40
0.0
  9
$LIMCHECK
 70
     0
  9
$CHAMFERA
 40
0.0
  9
$CHAMFERB
 40
0.0
  9
$CHAMFERC
 40
0.0
  9
$CHAMFERD
 40
0.0
  9
$SKPOLY
 70
     0
  9
$TDCREATE
 40
2458189.64439287
  9
$TDUCREATE
 40
2458189.602726204
  9
$TDUPDATE
 40
2458189.644393866
  9
$TDUUPDATE
 40
2458189.602727199
  9
$TDINDWG
 40
0.0000000116
  9
$TDUSRTIMER
 40
0.0000000116
  9
$USRTIMER
 70
     1
  9
$ANGBASE
 50
0.0
  9
$ANGDIR
 70
     0
  9
$PDMODE
 70
     0
  9
$PDSIZE
 40
-1.0
  9
$PLINEWID
 40
0.0
  9
$SPLFRAME
 70
     0
  9
$SPLINETYPE
 70
     6
  9
$SPLINESEGS
 70
     8
  9
$HANDSEED
  5
3F9
  9
$SURFTAB1
 70
     6
  9
$SURFTAB2
 70
     6
  9
$SURFTYPE
 70
     6
  9
$SURFU
 70
     6
  9
$SURFV
 70
     6
  9
$UCSBASE
  2

  9
$UCSNAME
  2

  9
$UCSORG
 10
0.0
 20
0.0
 30
0.0
  9
$UCSXDIR
 10
1.0
 20
0.0
 30
0.0
  9
$UCSYDIR
 10
0.0
 20
1.0
 30
0.0
  9
$UCSORTHOREF
  2

  9
$UCSORTHOVIEW
 70
     0
  9
$UCSORGTOP
 10
0.0
 20
0.0
 30
0.0
  9
$UCSORGBOTTOM
 10
0.0
 20
0.0
 30
0.0
  9
$UCSORGLEFT
 10
0.0
 20
0.0
 30
0.0
  9
$UCSORGRIGHT
 10
0.0
 20
0.0
 30
0.0
  9
$UCSORGFRONT
 10
0.0
 20
0.0
 30
0.0
  9
$UCSORGBACK
 10
0.0
 20
0.0
 30
0.0
  9
$PUCSBASE
  2

  9
$PUCSNAME
  2

  9
$PUCSORG
 10
0.0
 20
0.0
 30
0.0
  9
$PUCSXDIR
 10
1.0
 20
0.0
 30
0.0
  9
$PUCSYDIR
 10
0.0
 20
1.0
 30
0.0
  9
$PUCSORTHOREF
  2

  9
$PUCSORTHOVIEW
 70
     0
  9
$PUCSORGTOP
 10
0.0
 20
0.0
 30
0.0
  9
$PUCSORGBOTTOM
 10
0.0
 20
0.0
 30
0.0
  9
$PUCSORGLEFT
 10
0.0
 20
0.0
 30
0.0
  9
$PUCSORGRIGHT
 10
0.0
 20
0.0
 30
0.0
  9
$PUCSORGFRONT
 10
0.0
 20
0.0
 30
0.0
  9
$PUCSORGBACK
 10
0.0
 20
0.0
 30
0.0
  9
$USERI1
 70
     0
  9
$USERI2
 70
     0
  9
$USERI3
 70
     0
  9
$USERI4
 70
     0
  9
$USERI5
 70
     0
  9
$USERR1
 40
0.0
  9
$USERR2
 40
0.0
  9
$USERR3
 40
0.0
  9
$USERR4
 40
0.0
  9
$USERR5
 40
0.0
  9
$WORLDVIEW
 70
     1
  9
$SHADEDGE
 70
     3
  9
$SHADEDIF
 70
    70
  9
$TILEMODE
 70
     1
  9
$MAXACTVP
 70
    64
  9
$PINSBASE
 10
0.0
 20
0.0
 30
0.0
  9
$PLIMCHECK
 70
     0
  9
$PEXTMIN
 10
1.0000000000E+20
 20
1.0000000000E+20
 30
1.0000000000E+20
  9
$PEXTMAX
 10
-1.0000000000E+20
 20
-1.0000000000E+20
 30
-1.0000000000E+20
  9
$PLIMMIN
 10
0.0
 20
0.0
  9
$PLIMMAX
 10
420.0
 20
297.0
  9
$UNITMODE
 70
     0
  9
$VISRETAIN
 70
     1
  9
$PLINEGEN
 70
     0
  9
$PSLTSCALE
 70
     1
  9
$TREEDEPTH
 70
  3020
  9
$CMLSTYLE
  2
Standard
  9
$CMLJUST
 70
     0
  9
$CMLSCALE
 40
20.0
  9
$PROXYGRAPHICS
 70
     1
  9
$MEASUREMENT
 70
     1
  9
$CELWEIGHT
370
    -1
  9
$ENDCAPS
280
     0
  9
$JOINSTYLE
280
     0
  9
$LWDISPLAY
290
     1
  9
$INSUNITS
 70
     4
  9
$HYPERLINKBASE
  1

  9
$STYLESHEET
  1

  9
$XEDIT
290
     1
  9
$CEPSNTYPE
380
     0
  9
$PSTYLEMODE
290
     1
  9
$FINGERPRINTGUID
  2
{FD9C56BD-43AB-4909-B83D-28AD98E0962D}
  9
$VERSIONGUID
  2
{FAEB1C32-E019-11D5-929B-00C0DF256EC4}
  9
$EXTNAMES
290
     1
  9
$PSVPSCALE
 40
0.0
  9
$OLESTARTUP
290
     0
  0
ENDSEC
  0
SECTION
  2
CLASSES
  0
CLASS
  1
ACDBDICTIONARYWDFLT
  2
AcDbDictionaryWithDefault
  3
ObjectDBX Classes
 90
        0
280
     0
281
     0
  0
CLASS
  1
VISUALSTYLE
  2
AcDbVisualStyle
  3
ObjectDBX Classes
 90
     4095
280
     0
281
     0
  0
CLASS
  1
MATERIAL
  2
AcDbMaterial
  3
ObjectDBX Classes
 90
     1153
280
     0
281
     0
  0
CLASS
  1
SCALE
  2
AcDbScale
  3
ObjectDBX Classes
 90
     1153
280
     0
281
     0
  0
CLASS
  1
TABLESTYLE
  2
AcDbTableStyle
  3
ObjectDBX Classes
 90
     4095
280
     0
281
     0
  0
CLASS
  1
MLEADERSTYLE
  2
AcDbMLeaderStyle
  3
ACDB_MLEADERSTYLE_CLASS
 90
     4095
280
     0
281
     0
  0
CLASS
  1
SUN
  2
AcDbSun
  3
SCENEOE
 90
     1153
280
     0
281
     0
  0
CLASS
  1
ACDBPLACEHOLDER
  2
AcDbPlaceHolder
  3
ObjectDBX Classes
 90
        0
280
     0
281
     0
  0
CLASS
  1
LAYOUT
  2
AcDbLayout
  3
ObjectDBX Classes
 90
        0
280
     0
281
     0
  0
ENDSEC
  0
SECTION
  2
TABLES
  0
TABLE
  2
VPORT
  5
8
330
0
100
AcDbSymbolTable
 70
     1
  0
VPORT
  5
29
330
8
100
AcDbSymbolTableRecord
100
AcDbViewportTableRecord
  2
*Active
 70
     0
 10
0.0
 20
0.0
 11
1.0
 21
1.0
 12
450.0
 22
300.0
 13
0.0
 23
0.0
 14
10.0
 24
10.0
 15
10.0
 25
10.0
 16
0.0
 26
0.0
 36
1.0
 17
0.0
 27
0.0
 37
0.0
 40
600.0
 41
1.5
 42
50.0
 43
0.0
 44
0.0
 50
0.0
 51
0.0
 71
     0
 72
  2000
 73
     1
 74
     3
 75
     0
 76
     0
 77
     0
 78
     0
281
     0
 65
     1
110
0.0
120
0.0
130
0.0
111
1.0
121
0.0
131
0.0
112
0.0
122
1.0
132
0.0
 79
     0
146
0.0
  0
ENDTAB
  0
TABLE
  2
LTYPE
  5
5
330
0
100
AcDbSymbolTable
 70
     6
  0
LTYPE
  5
14
330
5
100
AcDbSymbolTableRecord
100
AcDbLinetypeTableRecord
  2
ByBlock
 70
     0
  3

 72
    65
 73
     0
 40
0.0
  0
LTYPE
  5
15
330
5
100
AcDbSymbolTableRecord
100
AcDbLinetypeTableRecord
  2
ByLayer
 70
     0
  3

 72
    65
 73
     0
 40
0.0
  0
LTYPE
  5
16
330
5
100
AcDbSymbolTableRecord
100
AcDbLinetypeTableRecord
  2
Continuous
 70
     0
  3
Solid line
 72
    65
 73
     0
 40
0.0
  0
LTYPE
  5
6E
330
5
100
AcDbSymbolTableRecord
100
AcDbLinetypeTableRecord
  2
HIDDEN
 70
     0
  3
Hidden __ __ __ __ __ __ __ __ __ __ __ __ __ __
 72
    65
 73
     2
 40
1.905
 49
1.27
 74
     0
 49
-0.635
 74
     0
  0
LTYPE
  5
6F
330
5
100
AcDbSymbolTableRecord
100
AcDbLinetypeTableRecord
  2
PHANTOM
 70
     0
  3
Phantom ______  __  __  ______  __  __  ______
 72
    65
 73
     6
 40
12.7
 49
6.35
 74
     0
 49
-1.27
 74
     0
 49
1.27
 74
     0
 49
-1.27
 74
     0
 49
1.27
 74
     0
 49
-1.27
 74
     0
  0
LTYPE
  5
70
330
5
100
AcDbSymbolTableRecord
100
AcDbLinetypeTableRecord
  2
CENTER
 70
     0
  3
Center ____ _ ____ _ ____ _ ____ _ ____ _ ____
 72
    65
 73
     4
 40
10.16
 49
6.35
 74
     0
 49
-1.27
 74
     0
 49
1.27
 74
     0
 49
-1.27
 74
     0
  0
LTYPE
  5
71
330
5
100
AcDbSymbolTableRecord
100
AcDbLinetypeTableRecord
  2
CENTERX2
 70
     0
  3
Center (2x) ________  __  ________  __  _____
 72
    65
 73
     4
 40
20.32
 49
12.7
 74
     0
 49
-2.54
 74
     0
 49
2.54
 74
     0
 49
-2.54
 74
     0
  0
LTYPE
  5
72
330
5
100
AcDbSymbolTableRecord
100
AcDbLinetypeTableRecord
  2
DOT2
 70
     0
  3
Dot (.5x) ........................................
 72
    65
 73
     2
 40
0.635
 49
0.0
 74
     0
 49
-0.635
 74
     0
  0
ENDTAB
  0
TABLE
  2
LAYER
  5
2
330
0
100
AcDbSymbolTable
 70
     1
  0
LAYER
  5
10
330
2
100
AcDbSymbolTableRecord
100
AcDbLayerTableRecord
  2
0
 70
     0
 62
     7
  6
Continuous
370
    -3
390
F
  0
ENDTAB
  0
TABLE
  2
STYLE
  5
3
330
0
100
AcDbSymbolTable
 70
     2
  0
STYLE
  5
11
330
3
100
AcDbSymbolTableRecord
100
AcDbTextStyleTableRecord
  2
Standard
 70
     0
 40
0.0
 41
1.0
 50
0.0
 71
     0
 42
3.5
  3
txt
  4

  0
STYLE
  5
3F6
330
3
100
AcDbSymbolTableRecord
100
AcDbTextStyleTableRecord
  2
SLDTEXTSTYLE0
 70
     0
 40
0.0
 41
0.7
 50
0.0
 71
     0
 42
3.5
  3
TXT
  4

  0
ENDTAB
  0
TABLE
  2
VIEW
  5
6
330
0
100
AcDbSymbolTable
 70
     0
  0
ENDTAB
  0
TABLE
  2
UCS
  5
7
330
0
100
AcDbSymbolTable
 70
     0
  0
ENDTAB
  0
TABLE
  2
APPID
  5
9
330
0
100
AcDbSymbolTable
 70
     1
  0
APPID
  5
12
330
9
100
AcDbSymbolTableRecord
100
AcDbRegAppTableRecord
  2
ACAD
 70
     0
  0
ENDTAB
  0
TABLE
  2
DIMSTYLE
  5
A
330
0
100
AcDbSymbolTable
 70
     1
100
AcDbDimStyleTable
  0
DIMSTYLE
105
27
330
A
100
AcDbSymbolTableRecord
100
AcDbDimStyleTableRecord
  2
ISO-25
 70
     0
 41
2.5
 42
0.625
 43
3.75
 44
1.25
 73
     0
 74
     0
 77
     1
 78
     8
140
2.5
141
2.5
143
0.0393700787
147
0.625
171
     3
172
     1
178
     0
271
     2
272
     2
274
     3
278
    44
283
     0
284
     8
340
11
  0
ENDTAB
  0
TABLE
  2
BLOCK_RECORD
  5
1
330
0
100
AcDbSymbolTable
 70
     1
  0
BLOCK_RECORD
  5
1F
330
1
100
AcDbSymbolTableRecord
100
AcDbBlockTableRecord
  2
*Model_Space
340
22
  0
BLOCK_RECORD
  5
1B
330
1
100
AcDbSymbolTableRecord
100
AcDbBlockTableRecord
  2
*Paper_Space
340
1E
  0
BLOCK_RECORD
  5
23
330
1
100
AcDbSymbolTableRecord
100
AcDbBlockTableRecord
  2
*Paper_Space0
340
26
  0
ENDTAB
  0
ENDSEC
  0
SECTION
  2
BLOCKS
  0
BLOCK
  5
20
330
1F
100
AcDbEntity
  8
0
100
AcDbBlockBegin
  2
*Model_Space
 70
     0
 10
0.0
 20
0.0
 30
0.0
  3
*Model_Space
  1

  0
ENDBLK
  5
21
330
1F
100
AcDbEntity
  8
0
100
AcDbBlockEnd
  0
BLOCK
  5
1C
330
1B
100
AcDbEntity
 67
     1
  8
0
100
AcDbBlockBegin
  2
*Paper_Space
 70
     0
 10
0.0
 20
0.0
 30
0.0
  3
*Paper_Space
  1

  0
ENDBLK
  5
1D
330
1B
100
AcDbEntity
 67
     1
  8
0
100
AcDbBlockEnd
  0
BLOCK
  5
24
330
23
100
AcDbEntity
  8
0
100
AcDbBlockBegin
  2
*Paper_Space0
 70
     0
 10
0.0
 20
0.0
 30
0.0
  3
*Paper_Space0
  1

  0
ENDBLK
  5
25
330
23
100
AcDbEntity
  8
0
100
AcDbBlockEnd
  0
ENDSEC
  0
SECTION
  2
ENTITIES
  0
LINE
  5
73
330
1F
100
AcDbEntity
  8
0
  6
Continuous
 62
     7
370
    25
100
AcDbLine
 10
261.995462287
 20
459.2060529941
 30
0.0
 11
261.995462287
 21
449.2060532177
 31
0.0
  0
LINE
  5
74
330
1F
100
AcDbEntity
  8
0
  6
Continuous
 62
     7
370
    25
100
AcDbLine
 10
246.9954616909
 20
449.2060532177
 30
0.0
 11
261.995462287
 21
449.2060532177
 31
0.0
  0
LINE
  5
75
330
1F
100
AcDbEntity
  8
0
  6
Continuous
 62
     7
370
    25
100
AcDbLine
 10
246.9954616909
 20
459.2060529941
 30
0.0
 11
246.9954616909
 21
449.2060532177
 31
0.0
  0
LINE
  5
76
330
1F
100
AcDbEntity
  8
0
  6
Continuous
 62
     7
370
    25
100
AcDbLine
 10
231.9954610949
 20
459.2060529941
 30
0.0
 11
246.9954616909
 21
459.2060529941
 31
0.0
  0
LINE
  5
77
330
1F
100
AcDbEntity
  8
0
  6
Continuous
 62
     7
370
    25
100
AcDbLine
 10
231.9954610949
 20
459.2060529941
 30
0.0
 11
231.9954610949
 21
449.2060532177
 31
0.0
  0
LINE
  5
78
330
1F
100
AcDbEntity
  8
0
  6
Continuous
 62
     7
370
    25
100
AcDbLine
 10
216.9954604988
 20
449.2060532177
 30
0.0
 11
231.9954610949
 21
449.2060532177
 31
0.0
  0
LINE
  5
79
330
1F
100
AcDbEntity
  8
0
  6
Continuous
 62
     7
370
    25
100
AcDbLine
 10
216.9954604988
 20
459.2060529941
 30
0.0
 11
216.9954604988
 21
449.2060532177
 31
0.0
  0
LINE
  5
7A
330
1F
100
AcDbEntity
  8
0
  6
Continuous
 62
     7
370
    25
100
AcDbLine
 10
201.9954599028
 20
459.2060529941
 30
0.0
 11
216.9954604988
 21
459.2060529941
 31
0.0
  0
LINE
  5
7B
330
1F
100
AcDbEntity
  8
0
  6
Continuous
 62
     7
370
    25
100
AcDbLine
 10
201.9954599028
 20
459.2060529941
 30
0.0
 11
201.9954599028
 21
454.2060531059
 31
0.0
  0
LINE
  5
7C
330
1F
100
AcDbEntity
  8
0
  6
Continuous
 62
     7
370
    25
100
AcDbLine
 10
190.9954599624
 20
454.2060531059
 30
0.0
 11
201.9954599028
 21
454.2060531059
 31
0.0
  0
ARC
  5
7D
330
1F
100
AcDbEntity
  8
0
  6
Continuous
 62
     7
370
    25
100
AcDbCircle
 10
146.9954602008
 20
454.2060531059
 30
0.0
 40
44.00000000000003
100
AcDbArc
 50
0.0
 51
180.0
  0
LINE
  5
7E
330
1F
100
AcDbEntity
  8
0
  6
Continuous
 62
     7
370
    25
100
AcDbLine
 10
91.9954604988
 20
459.2060529941
 30
0.0
 11
91.9954604988
 21
454.2060531059
 31
0.0
  0
LINE
  5
7F
330
1F
100
AcDbEntity
  8
0
  6
Continuous
 62
     7
370
    25
100
AcDbLine
 10
91.9954604988
 20
459.2060529941
 30
0.0
 11
76.9954599028
 21
459.2060529941
 31
0.0
  0
LINE
  5
80
330
1F
100
AcDbEntity
  8
0
  6
Continuous
 62
     7
370
    25
100
AcDbLine
 10
76.9954599028
 20
459.2060529941
 30
0.0
 11
76.9954599028
 21
449.2060532177
 31
0.0
  0
LINE
  5
81
330
1F
100
AcDbEntity
  8
0
  6
Continuous
 62
     7
370
    25
100
AcDbLine
 10
76.9954599028
 20
449.2060532177
 30
0.0
 11
61.9954593067
 21
449.2060532177
 31
0.0
  0
LINE
  5
82
330
1F
100
AcDbEntity
  8
0
  6
Continuous
 62
     7
370
    25
100
AcDbLine
 10
61.9954593067
 20
459.2060529941
 30
0.0
 11
61.9954593067
 21
449.2060532177
 31
0.0
  0
LINE
  5
83
330
1F
100
AcDbEntity
  8
0
  6
Continuous
 62
     7
370
    25
100
AcDbLine
 10
61.9954593067
 20
459.2060529941
 30
0.0
 11
46.9954587107
 21
459.2060529941
 31
0.0
  0
LINE
  5
84
330
1F
100
AcDbEntity
  8
0
  6
Continuous
 62
     7
370
    25
100
AcDbLine
 10
46.9954587107
 20
459.2060529941
 30
0.0
 11
46.9954587107
 21
449.2060532177
 31
0.0
  0
LINE
  5
85
330
1F
100
AcDbEntity
  8
0
  6
Continuous
 62
     7
370
    25
100
AcDbLine
 10
46.9954587107
 20
449.2060532177
 30
0.0
 11
31.9954581146
 21
449.2060532177
 31
0.0
  0
LINE
  5
86
330
1F
100
AcDbEntity
  8
0
  6
Continuous
 62
     7
370
    25
100
AcDbLine
 10
31.9954581146
 20
459.2060529941
 30
0.0
 11
31.9954581146
 21
449.2060532177
 31
0.0
  0
LINE
  5
87
330
1F
100
AcDbEntity
  8
0
  6
Continuous
 62
     7
370
    25
100
AcDbLine
 10
31.9954581146
 20
459.2060529941
 30
0.0
 11
16.9954649692
 21
459.2060529941
 31
0.0
  0
LINE
  5
88
330
1F
100
AcDbEntity
  8
0
  6
Continuous
 62
     7
370
    25
100
AcDbLine
 10
16.9954649692
 20
459.2060529941
 30
0.0
 11
16.9954649692
 21
454.2060531059
 31
0.0
  0
LINE
  5
89
330
1F
100
AcDbEntity
  8
0
  6
Continuous
 62
     7
370
    25
100
AcDbLine
 10
6.9954596047
 20
454.2060531059
 30
0.0
 11
16.9954649692
 21
454.2060531059
 31
0.0
  0
ARC
  5
8A
330
1F
100
AcDbEntity
  8
0
  6
Continuous
 62
     7
370
    25
100
AcDbCircle
 10
146.9954602008
 20
454.2060531059
 30
0.0
 40
140.0
100
AcDbArc
 50
0.0
 51
180.0
  0
LINE
  5
8B
330
1F
100
AcDbEntity
  8
0
  6
Continuous
 62
     7
370
    25
100
AcDbLine
 10
276.9954554324
 20
459.2060529941
 30
0.0
 11
276.9954554324
 21
454.2060531059
 31
0.0
  0
LINE
  5
8C
330
1F
100
AcDbEntity
  8
0
  6
Continuous
 62
     7
370
    25
100
AcDbLine
 10
261.995462287
 20
459.2060529941
 30
0.0
 11
276.9954554324
 21
459.2060529941
 31
0.0
  0
CIRCLE
  5
8D
330
1F
100
AcDbEntity
  8
0
  6
Continuous
 62
     7
370
    25
100
AcDbCircle
 10
90.9954602008
 20
510.2060531059
 30
0.0
 40
2.25
  0
CIRCLE
  5
8E
330
1F
100
AcDbEntity
  8
0
  6
Continuous
 62
     7
370
    25
100
AcDbCircle
 10
202.9954602008
 20
510.2060531059
 30
0.0
 40
2.25
  0
LINE
  5
8F
330
1F
100
AcDbEntity
  8
0
  6
Continuous
 62
     7
370
    25
100
AcDbLine
 10
91.9954604988
 20
454.2060531059
 30
0.0
 11
102.9954604392
 21
454.2060531059
 31
0.0
  0
LINE
  5
90
330
1F
100
AcDbEntity
  8
0
  6
Continuous
 62
     7
370
    25
100
AcDbLine
 10
276.9954554324
 20
454.2060531059
 30
0.0
 11
286.9954607968
 21
454.2060531059
 31
0.0
  0
CIRCLE
  5
91
330
1F
100
AcDbEntity
  8
0
  6
Continuous
 62
     7
370
    25
100
AcDbCircle
 10
202.9954602008
 20
398.2060531059
 30
0.0
 40
2.25
  0
CIRCLE
  5
92
330
1F
100
AcDbEntity
  8
0
  6
Continuous
 62
     7
370
    25
100
AcDbCircle
 10
90.9954602008
 20
398.2060531059
 30
0.0
 40
2.25
  0
ARC
  5
93
330
1F
100
AcDbEntity
  8
0
  6
Continuous
 62
     7
370
    25
100
AcDbCircle
 10
146.9954602008
 20
454.2060531059
 30
0.0
 40
44.00000000000003
100
AcDbArc
 50
180.0
 51
0.0
  0
ARC
  5
94
330
1F
100
AcDbEntity
  8
0
  6
Continuous
 62
     7
370
    25
100
AcDbCircle
 10
146.9954602008
 20
454.2060531059
 30
0.0
 40
140.0
100
AcDbArc
 50
180.0
 51
0.0
  0
CIRCLE
  5
95
330
1F
100
AcDbEntity
  8
0
  6
Continuous
 62
     7
370
    25
100
AcDbCircle
 10
529.0189712469
 20
495.5381168303
 30
0.0
 40
4.0
  0
CIRCLE
  5
96
330
1F
100
AcDbEntity
  8
0
  6
Continuous
 62
     7
370
    25
100
AcDbCircle
 10
379.4420736233
 20
563.388364551
 30
0.0
 40
4.0
  0
CIRCLE
  5
97
330
1F
100
AcDbEntity
  8
0
  6
Continuous
 62
     7
370
    25
100
AcDbCircle
 10
419.7490882482
 20
586.9549606191
 30
0.0
 40
4.0
  0
CIRCLE
  5
98
330
1F
100
AcDbEntity
  8
0
  6
Continuous
 62
     7
370
    25
100
AcDbCircle
 10
437.8718992441
 20
560.1723123286
 30
0.0
 40
3.999999999999943
  0
CIRCLE
  5
99
330
1F
100
AcDbEntity
  8
0
  6
Continuous
 62
     7
370
    25
100
AcDbCircle
 10
541.8268133987
 20
525.4449238149
 30
0.0
 40
4.0
  0
CIRCLE
  5
9A
330
1F
100
AcDbEntity
  8
0
  6
Continuous
 62
     7
370
    25
100
AcDbCircle
 10
533.7285329608
 20
487.655433476
 30
0.0
 40
4.0
  0
CIRCLE
  5
9B
330
1F
100
AcDbEntity
  8
0
  6
Continuous
 62
     7
370
    25
100
AcDbCircle
 10
511.3832625203
 20
503.8749258125
 30
0.0
 40
4.0
  0
CIRCLE
  5
9C
330
1F
100
AcDbEntity
  8
0
  6
Continuous
 62
     7
370
    25
100
AcDbCircle
 10
517.6484810059
 20
467.0598150315
 30
0.0
 40
4.0
  0
CIRCLE
  5
9D
330
1F
100
AcDbEntity
  8
0
  6
Continuous
 62
     7
370
    25
100
AcDbCircle
 10
553.1604067078
 20
494.8958299567
 30
0.0
 40
4.0
  0
CIRCLE
  5
9E
330
1F
100
AcDbEntity
  8
0
  6
Continuous
 62
     7
370
    25
100
AcDbCircle
 10
538.4380946747
 20
479.7727501216
 30
0.0
 40
4.0
  0
CIRCLE
  5
9F
330
1F
100
AcDbEntity
  8
0
  6
Continuous
 62
     7
370
    25
100
AcDbCircle
 10
511.3832625203
 20
560.1723123286
 30
0.0
 40
4.0
  0
CIRCLE
  5
A0
330
1F
100
AcDbEntity
  8
0
  6
Continuous
 62
     7
370
    25
100
AcDbCircle
 10
340.7887782613
 20
547.3432591411
 30
0.0
 40
4.0
  0
CIRCLE
  5
A1
330
1F
100
AcDbEntity
  8
0
  6
Continuous
 62
     7
370
    25
100
AcDbCircle
 10
301.0715168376
 20
462.7560648245
 30
0.0
 40
4.0
  0
CIRCLE
  5
A2
330
1F
100
AcDbEntity
  8
0
  6
Continuous
 62
     7
370
    25
100
AcDbCircle
 10
443.7051858582
 20
578.8588618535
 30
0.0
 40
4.0
  0
CIRCLE
  5
A3
330
1F
100
AcDbEntity
  8
0
  6
Continuous
 62
     7
370
    25
100
AcDbCircle
 10
321.8105729353
 20
513.4246371249
 30
0.0
 40
4.0
  0
CIRCLE
  5
A4
330
1F
100
AcDbEntity
  8
0
  6
Continuous
 62
     7
370
    25
100
AcDbCircle
 10
515.8697879875
 20
532.1201299045
 30
0.0
 40
4.0
  0
CIRCLE
  5
A5
330
1F
100
AcDbEntity
  8
0
  6
Continuous
 62
     7
370
    25
100
AcDbCircle
 10
481.0527920598
 20
500.810371257
 30
0.0
 40
4.0
  0
LINE
  5
A6
330
1F
100
AcDbEntity
  8
0
  6
Continuous
 62
     7
370
    25
100
AcDbLine
 10
359.504637723
 20
533.5603103951
 30
0.0
 11
378.1754387963
 21
526.4294416622
 31
0.0
  0
ARC
  5
A7
330
1F
100
AcDbEntity
  8
0
  6
Continuous
 62
     7
370
    25
100
AcDbCircle
 10
376.3914926699
 20
521.7585206955
 30
0.0
 40
5.0
100
AcDbArc
 50
0.0
 51
69.0968379687
  0
LINE
  5
A8
330
1F
100
AcDbEntity
  8
0
  6
Continuous
 62
     7
370
    25
100
AcDbLine
 10
381.3914930868
 20
521.7585236744
 30
0.0
 11
381.3914930868
 21
500.8103706852
 31
0.0
  0
ARC
  5
A9
330
1F
100
AcDbEntity
  8
0
  6
Continuous
 62
     7
370
    25
100
AcDbCircle
 10
385.3914926699
 20
500.810371257
 30
0.0
 40
4.0
100
AcDbArc
 50
180.0
 51
0.0
  0
LINE
  5
AA
330
1F
100
AcDbEntity
  8
0
  6
Continuous
 62
     7
370
    25
100
AcDbLine
 10
389.3914943981
 20
500.8103706852
 30
0.0
 11
389.3914943981
 21
520.3814701156
 31
0.0
  0
ARC
  5
AB
330
1F
100
AcDbEntity
  8
0
  6
Continuous
 62
     7
370
    25
100
AcDbCircle
 10
374.3914926699
 20
520.3814688432
 30
0.0
 40
15.00000000000014
100
AcDbArc
 50
0.0
 51
69.0968379687
  0
LINE
  5
AC
330
1F
100
AcDbEntity
  8
0
  6
Continuous
 62
     7
370
    25
100
AcDbLine
 10
379.7433352518
 20
534.3942389802
 30
0.0
 11
362.3589476991
 21
541.0337940768
 31
0.0
  0
ARC
  5
AD
330
1F
100
AcDbEntity
  8
0
  6
Continuous
 62
     7
370
    25
100
AcDbCircle
 10
360.9317931071
 20
537.2970517913
 30
0.0
 40
3.999999999999992
100
AcDbArc
 50
69.0968379687
 51
249.0968379687
  0
ARC
  5
AE
330
1F
100
AcDbEntity
  8
0
  6
Continuous
 62
     7
370
    25
100
AcDbCircle
 10
491.7369026666
 20
548.4346830122
 30
0.0
 40
4.000000000000003
100
AcDbArc
 50
262.2838050392
 51
82.2838050392
  0
SPLINE
  5
AF
330
1F
100
AcDbEntity
  8
0
  6
Continuous
 62
     7
370
    25
100
AcDbSpline
210
0.0
220
0.0
230
1.0
 70
     8
 71
     3
 72
    12
 73
     8
 74
     0
 42
0.000000001
 43
0.00000001
 40
0.0
 40
0.0
 40
0.0
 40
0.0
 40
0.1553508227069705
 40
0.4028371051662279
 40
0.4568607754995275
 40
0.6955875260399665
 40
1.0
 40
1.0
 40
1.0
 40
1.0
 10
492.2739678137939
 20
552.3984641650778
 30
0.0
 10
481.806140143696
 20
553.8167829853882
 30
0.0
 10
468.1720795270656
 20
546.5965223140107
 30
0.0
 10
466.6027509075798
 20
538.2114730382234
 30
0.0
 10
459.7816031385186
 20
535.5877675275893
 30
0.0
 10
447.5430832717613
 20
544.1104395890359
 30
0.0
 10
431.1271399517257
 20
538.8169629177175
 30
0.0
 10
424.405134142157
 20
531.8986969597977
 30
0.0
  0
ARC
  5
B0
330
1F
100
AcDbEntity
  8
0
  6
Continuous
 62
     7
370
    25
100
AcDbCircle
 10
427.273960548
 20
529.1112545741
 30
0.0
 40
4.000000000000005
100
AcDbArc
 50
135.8243312518
 51
315.8243312518
  0
SPLINE
  5
B1
330
1F
100
AcDbEntity
  8
0
  6
Continuous
 62
     7
370
    25
100
AcDbSpline
210
0.0
220
0.0
230
1.0
 70
     8
 71
     3
 72
    42
 73
    38
 74
     0
 42
0.000000001
 43
0.00000001
 40
0.0
 40
0.0
 40
0.0
 40
0.0
 40
0.03125
 40
0.0625
 40
0.125
 40
0.1875
 40
0.21875
 40
0.25
 40
0.28125
 40
0.3125
 40
0.34375
 40
0.375
 40
0.40625
 40
0.4375
 40
0.46875
 40
0.5
 40
0.53125
 40
0.546875
 40
0.5625
 40
0.59375
 40
0.625
 40
0.65625
 40
0.6875
 40
0.75
 40
0.78125
 40
0.8125
 40
0.828125
 40
0.84375
 40
0.859375
 40
0.875
 40
0.90625
 40
0.9375
 40
0.953125
 40
0.96875
 40
0.984375
 40
0.9921875
 40
1.0
 40
1.0
 40
1.0
 40
1.0
 10
430.1427869537507
 20
526.3238121884674
 30
0.0
 10
430.647169818112
 20
526.8429213500962
 30
0.0
 10
431.7159274118267
 20
527.8414201693616
 30
0.0
 10
433.9543134363258
 20
529.5642446257577
 30
0.0
 10
436.9396742632826
 20
531.2535161566466
 30
0.0
 10
439.9877437314948
 20
532.2960999422562
 30
0.0
 10
442.3447145297932
 20
532.7484342897845
 30
0.0
 10
444.0337059067907
 20
532.9035915073499
 30
0.0
 10
445.6299778630096
 20
532.8818772956687
 30
0.0
 10
447.0336028033972
 20
532.7105037522833
 30
0.0
 10
448.5377956204445
 20
532.3588497477616
 30
0.0
 10
450.1852746489877
 20
531.8329619640309
 30
0.0
 10
451.9494931597143
 20
531.1723896996814
 30
0.0
 10
453.8433646568639
 20
530.4281081235426
 30
0.0
 10
455.9178718436089
 20
529.6614300573368
 30
0.0
 10
458.3157261485635
 20
528.9637976913306
 30
0.0
 10
460.7815117759005
 20
528.5896596629765
 30
0.0
 10
463.2309437444131
 20
528.7126514837037
 30
0.0
 10
465.6438046490406
 20
529.2163656513621
 30
0.0
 10
468.3195271608603
 20
530.4464194101766
 30
0.0
 10
470.7287888966781
 20
532.4742602123803
 30
0.0
 10
472.2816073302909
 20
534.3934618388281
 30
0.0
 10
473.7279298683133
 20
536.5715837905256
 30
0.0
 10
474.7593366301617
 20
538.2616135198429
 30
0.0
 10
475.8823738898594
 20
539.7617368390994
 30
0.0
 10
476.6948562233545
 20
540.6781489410943
 30
0.0
 10
477.4634405281895
 20
541.4216035307329
 30
0.0
 10
478.1283074747426
 20
541.9999012036841
 30
0.0
 10
478.8420726127235
 20
542.5563821490985
 30
0.0
 10
479.791503613615
 20
543.195688074097
 30
0.0
 10
481.1066956787972
 20
543.8764068867857
 30
0.0
 10
482.9031639489497
 20
544.4223255586038
 30
0.0
 10
484.8489209007734
 20
544.7051186234844
 30
0.0
 10
486.6023071549272
 20
544.8041440533572
 30
0.0
 10
488.3473809322663
 20
544.7598788561639
 30
0.0
 10
489.9062443034019
 20
544.6314131318909
 30
0.0
 10
490.7771546330163
 20
544.5281724900889
 30
0.0
 10
491.1998375193623
 20
544.4709018593887
 30
0.0
  0
CIRCLE
  5
B2
330
1F
100
AcDbEntity
  8
0
  6
Continuous
 62
     7
370
    25
100
AcDbCircle
 10
402.5751017431
 20
556.0503606624
 30
0.0
 40
4.0
  0
CIRCLE
  5
B3
330
1F
100
AcDbEntity
  8
0
  6
Continuous
 62
     7
370
    25
100
AcDbCircle
 10
346.4353200225
 20
479.7727501216
 30
0.0
 40
4.0
  0
CIRCLE
  5
B4
330
1F
100
AcDbEntity
  8
0
  6
Continuous
 62
     7
370
    25
100
AcDbCircle
 10
321.8105729353
 20
478.438295093
 30
0.0
 40
4.0
  0
CIRCLE
  5
B5
330
1F
100
AcDbEntity
  8
0
  6
Continuous
 62
     7
370
    25
100
AcDbCircle
 10
359.504634885
 20
509.4182977526
 30
0.0
 40
4.0
  0
CIRCLE
  5
B6
330
1F
100
AcDbEntity
  8
0
  6
Continuous
 62
     7
370
    25
100
AcDbCircle
 10
372.4420736233
 20
472.5732846616
 30
0.0
 40
4.0
  0
CIRCLE
  5
B7
330
1F
100
AcDbEntity
  8
0
  6
Continuous
 62
     7
370
    25
100
AcDbCircle
 10
471.3900216757
 20
566.5379139871
 30
0.0
 40
4.0
  0
CIRCLE
  5
B8
330
1F
100
AcDbEntity
  8
0
  6
Continuous
 62
     7
370
    25
100
AcDbCircle
 10
455.709993947
 20
510.0072877022
 30
0.0
 40
4.0
  0
CIRCLE
  5
B9
330
1F
100
AcDbEntity
  8
0
  6
Continuous
 62
     7
370
    25
100
AcDbCircle
 10
411.7646530759
 20
512.0704492454
 30
0.0
 40
4.0
  0
CIRCLE
  5
BA
330
1F
100
AcDbEntity
  8
0
  6
Continuous
 62
     7
370
    25
100
AcDbCircle
 10
562.2346100809
 20
467.0598150315
 30
0.0
 40
4.0
  0
CIRCLE
  5
BB
330
1F
100
AcDbEntity
  8
0
  6
Continuous
 62
     7
370
    25
100
AcDbCircle
 10
493.435196652
 20
479.7727501216
 30
0.0
 40
4.0
  0
CIRCLE
  5
BC
330
1F
100
AcDbEntity
  8
0
  6
Continuous
 62
     7
370
    25
100
AcDbCircle
 10
375.5531155515
 20
511.0946996526
 30
0.0
 40
4.25
  0
CIRCLE
  5
BD
330
1F
100
AcDbEntity
  8
0
  6
Continuous
 62
     7
370
    25
100
AcDbCircle
 10
487.5531155515
 20
511.0946996526
 30
0.0
 40
4.249999999999943
  0
LINE
  5
BE
330
1F
100
AcDbEntity
  8
0
  6
Continuous
 62
     7
370
    25
100
AcDbLine
 10
291.5531149555
 20
455.0946996526
 30
0.0
 11
387.5531157899
 21
455.0946996526
 31
0.0
  0
ARC
  5
BF
330
1F
100
AcDbEntity
  8
0
  6
Continuous
 62
     7
370
    25
100
AcDbCircle
 10
431.5531155515
 20
455.0946996526
 30
0.0
 40
140.0
100
AcDbArc
 50
0.0
 51
180.0
  0
LINE
  5
C0
330
1F
100
AcDbEntity
  8
0
  6
Continuous
 62
     7
370
    25
100
AcDbLine
 10
475.5531153131
 20
455.0946996526
 30
0.0
 11
571.5531161475
 21
455.0946996526
 31
0.0
  0
ARC
  5
C1
330
1F
100
AcDbEntity
  8
0
  6
Continuous
 62
     7
370
    25
100
AcDbCircle
 10
431.5531155515
 20
455.0946996526
 30
0.0
 40
44.0
100
AcDbArc
 50
0.0
 51
180.0
  0
ARC
  5
C2
330
1F
100
AcDbEntity
  8
0
  6
Continuous
 62
     7
370
    25
100
AcDbCircle
 10
431.5531155515
 20
455.0946996526
 30
0.0
 40
44.00000000000006
100
AcDbArc
 50
180.0
 51
0.0
  0
ARC
  5
C3
330
1F
100
AcDbEntity
  8
0
  6
Continuous
 62
     7
370
    25
100
AcDbCircle
 10
431.5531155515
 20
455.0946996526
 30
0.0
 40
140.0
100
AcDbArc
 50
180.0
 51
0.0
  0
CIRCLE
  5
C4
330
1F
100
AcDbEntity
  8
0
  6
Continuous
 62
     7
370
    25
100
AcDbCircle
 10
369.671034451
 20
430.4166491835
 30
0.0
 40
4.0
  0
CIRCLE
  5
C5
330
1F
100
AcDbEntity
  8
0
  6
Continuous
 62
     7
370
    25
100
AcDbCircle
 10
334.0872598561
 20
414.6512824749
 30
0.0
 40
4.0
  0
CIRCLE
  5
C6
330
1F
100
AcDbEntity
  8
0
  6
Continuous
 62
     7
370
    25
100
AcDbCircle
 10
483.6641574797
 20
346.8010347542
 30
0.0
 40
4.0
  0
CIRCLE
  5
C7
330
1F
100
AcDbEntity
  8
0
  6
Continuous
 62
     7
370
    25
100
AcDbCircle
 10
443.3571428548
 20
323.2344386861
 30
0.0
 40
4.0
  0
CIRCLE
  5
C8
330
1F
100
AcDbEntity
  8
0
  6
Continuous
 62
     7
370
    25
100
AcDbCircle
 10
425.2343318589
 20
350.0170869766
 30
0.0
 40
3.999999999999943
  0
CIRCLE
  5
C9
330
1F
100
AcDbEntity
  8
0
  6
Continuous
 62
     7
370
    25
100
AcDbCircle
 10
321.2794177043
 20
384.7444754902
 30
0.0
 40
4.0
  0
CIRCLE
  5
CA
330
1F
100
AcDbEntity
  8
0
  6
Continuous
 62
     7
370
    25
100
AcDbCircle
 10
329.3776981422
 20
422.5339658292
 30
0.0
 40
4.0
  0
CIRCLE
  5
CB
330
1F
100
AcDbEntity
  8
0
  6
Continuous
 62
     7
370
    25
100
AcDbCircle
 10
351.7229685827
 20
406.3144734927
 30
0.0
 40
4.0
  0
CIRCLE
  5
CC
330
1F
100
AcDbEntity
  8
0
  6
Continuous
 62
     7
370
    25
100
AcDbCircle
 10
345.4577500971
 20
443.1295842736
 30
0.0
 40
4.000000000000057
  0
CIRCLE
  5
CD
330
1F
100
AcDbEntity
  8
0
  6
Continuous
 62
     7
370
    25
100
AcDbCircle
 10
309.9458243952
 20
415.2935693485
 30
0.0
 40
4.0
  0
CIRCLE
  5
CE
330
1F
100
AcDbEntity
  8
0
  6
Continuous
 62
     7
370
    25
100
AcDbCircle
 10
324.6681364283
 20
430.4166491835
 30
0.0
 40
4.0
  0
CIRCLE
  5
CF
330
1F
100
AcDbEntity
  8
0
  6
Continuous
 62
     7
370
    25
100
AcDbCircle
 10
351.7229685827
 20
350.0170869766
 30
0.0
 40
4.0
  0
CIRCLE
  5
D0
330
1F
100
AcDbEntity
  8
0
  6
Continuous
 62
     7
370
    25
100
AcDbCircle
 10
522.3174528417
 20
362.8461401641
 30
0.0
 40
4.0
  0
CIRCLE
  5
D1
330
1F
100
AcDbEntity
  8
0
  6
Continuous
 62
     7
370
    25
100
AcDbCircle
 10
562.0347142654
 20
447.4333344807
 30
0.0
 40
4.0
  0
CIRCLE
  5
D2
330
1F
100
AcDbEntity
  8
0
  6
Continuous
 62
     7
370
    25
100
AcDbCircle
 10
419.4010452448
 20
331.3305374517
 30
0.0
 40
4.0
  0
CIRCLE
  5
D3
330
1F
100
AcDbEntity
  8
0
  6
Continuous
 62
     7
370
    25
100
AcDbCircle
 10
541.2956581677
 20
396.7647621802
 30
0.0
 40
4.0
  0
CIRCLE
  5
D4
330
1F
100
AcDbEntity
  8
0
  6
Continuous
 62
     7
370
    25
100
AcDbCircle
 10
347.2364431155
 20
378.0692694006
 30
0.0
 40
4.0
  0
CIRCLE
  5
D5
330
1F
100
AcDbEntity
  8
0
  6
Continuous
 62
     7
370
    25
100
AcDbCircle
 10
382.0534390432
 20
409.3790280482
 30
0.0
 40
4.0
  0
LINE
  5
D6
330
1F
100
AcDbEntity
  8
0
  6
Continuous
 62
     7
370
    25
100
AcDbLine
 10
503.60159338
 20
376.62908891
 30
0.0
 11
484.9307923067
 21
383.7599576429
 31
0.0
  0
ARC
  5
D7
330
1F
100
AcDbEntity
  8
0
  6
Continuous
 62
     7
370
    25
100
AcDbCircle
 10
486.7147384331
 20
388.4308786097
 30
0.0
 40
5.0
100
AcDbArc
 50
180.0
 51
249.0968379687
  0
LINE
  5
D8
330
1F
100
AcDbEntity
  8
0
  6
Continuous
 62
     7
370
    25
100
AcDbLine
 10
481.7147380162
 20
388.4308756308
 30
0.0
 11
481.7147380162
 21
409.3790286199
 31
0.0
  0
ARC
  5
D9
330
1F
100
AcDbEntity
  8
0
  6
Continuous
 62
     7
370
    25
100
AcDbCircle
 10
477.7147384331
 20
409.3790280482
 30
0.0
 40
4.0
100
AcDbArc
 50
0.0
 51
180.0
  0
LINE
  5
DA
330
1F
100
AcDbEntity
  8
0
  6
Continuous
 62
     7
370
    25
100
AcDbLine
 10
473.7147367049
 20
409.3790286199
 30
0.0
 11
473.7147367049
 21
389.8079291896
 31
0.0
  0
ARC
  5
DB
330
1F
100
AcDbEntity
  8
0
  6
Continuous
 62
     7
370
    25
100
AcDbCircle
 10
488.7147384331
 20
389.8079304619
 30
0.0
 40
15.00000000000004
100
AcDbArc
 50
180.0
 51
249.0968379687
  0
LINE
  5
DC
330
1F
100
AcDbEntity
  8
0
  6
Continuous
 62
     7
370
    25
100
AcDbLine
 10
483.3628958512
 20
375.795160325
 30
0.0
 11
500.7472834039
 21
369.1556052283
 31
0.0
  0
ARC
  5
DD
330
1F
100
AcDbEntity
  8
0
  6
Continuous
 62
     7
370
    25
100
AcDbCircle
 10
502.1744379959
 20
372.8923475138
 30
0.0
 40
4.000000000000025
100
AcDbArc
 50
249.0968379687
 51
69.0968379687
  0
ARC
  5
DE
330
1F
100
AcDbEntity
  8
0
  6
Continuous
 62
     7
370
    25
100
AcDbCircle
 10
371.3693284364
 20
361.7547162929
 30
0.0
 40
4.000000000000003
100
AcDbArc
 50
82.2838050392
 51
262.2838050392
  0
SPLINE
  5
DF
330
1F
100
AcDbEntity
  8
0
  6
Continuous
 62
     7
370
    25
100
AcDbSpline
210
0.0
220
0.0
230
1.0
 70
     8
 71
     3
 72
    12
 73
     8
 74
     0
 42
0.000000001
 43
0.00000001
 40
0.0
 40
0.0
 40
0.0
 40
0.0
 40
0.1553508227069705
 40
0.4028371051662279
 40
0.4568607754995275
 40
0.6955875260399665
 40
1.0
 40
1.0
 40
1.0
 40
1.0
 10
370.8322632892055
 20
357.7909351400814
 30
0.0
 10
381.3000909593034
 20
356.3726163197711
 30
0.0
 10
394.9341515759339
 20
363.5928769911487
 30
0.0
 10
396.5034801954196
 20
371.9779262669359
 30
0.0
 10
403.3246279644809
 20
374.60163177757
 30
0.0
 10
415.5631478312382
 20
366.0789597161234
 30
0.0
 10
431.9790911512737
 20
371.3724363874418
 30
0.0
 10
438.7010969608424
 20
378.2907023453615
 30
0.0
  0
ARC
  5
E0
330
1F
100
AcDbEntity
  8
0
  6
Continuous
 62
     7
370
    25
100
AcDbCircle
 10
435.832270555
 20
381.078144731
 30
0.0
 40
4.000000000000044
100
AcDbArc
 50
315.8243312518
 51
135.8243312518
  0
SPLINE
  5
E1
330
1F
100
AcDbEntity
  8
0
  6
Continuous
 62
     7
370
    25
100
AcDbSpline
210
0.0
220
0.0
230
1.0
 70
     8
 71
     3
 72
    42
 73
    38
 74
     0
 42
0.000000001
 43
0.00000001
 40
0.0
 40
0.0
 40
0.0
 40
0.0
 40
0.03125
 40
0.0625
 40
0.125
 40
0.1875
 40
0.21875
 40
0.25
 40
0.28125
 40
0.3125
 40
0.34375
 40
0.375
 40
0.40625
 40
0.4375
 40
0.46875
 40
0.5
 40
0.53125
 40
0.546875
 40
0.5625
 40
0.59375
 40
0.625
 40
0.65625
 40
0.6875
 40
0.75
 40
0.78125
 40
0.8125
 40
0.828125
 40
0.84375
 40
0.859375
 40
0.875
 40
0.90625
 40
0.9375
 40
0.953125
 40
0.96875
 40
0.984375
 40
0.9921875
 40
1.0
 40
1.0
 40
1.0
 40
1.0
 10
432.9634441492487
 20
383.865587116692
 30
0.0
 10
432.4590612848874
 20
383.3464779550632
 30
0.0
 10
431.3903036911727
 20
382.3479791357976
 30
0.0
 10
429.1519176666736
 20
380.6251546794016
 30
0.0
 10
426.1665568397168
 20
378.9358831485127
 30
0.0
 10
423.1184873715046
 20
377.8932993629031
 30
0.0
 10
420.7615165732063
 20
377.4409650153747
 30
0.0
 10
419.0725251962088
 20
377.2858077978094
 30
0.0
 10
417.4762532399898
 20
377.3075220094906
 30
0.0
 10
416.0726282996022
 20
377.4788955528759
 30
0.0
 10
414.5684354825549
 20
377.8305495573977
 30
0.0
 10
412.9209564540117
 20
378.3564373411284
 30
0.0
 10
411.1567379432851
 20
379.0170096054779
 30
0.0
 10
409.2628664461356
 20
379.7612911816167
 30
0.0
 10
407.1883592593906
 20
380.5279692478225
 30
0.0
 10
404.790504954436
 20
381.2256016138287
 30
0.0
 10
402.3247193270989
 20
381.5997396421828
 30
0.0
 10
399.8752873585863
 20
381.4767478214557
 30
0.0
 10
397.4624264539589
 20
380.9730336537972
 30
0.0
 10
394.7867039421392
 20
379.7429798949826
 30
0.0
 10
392.3774422063213
 20
377.7151390927791
 30
0.0
 10
390.8246237727086
 20
375.7959374663312
 30
0.0
 10
389.3783012346862
 20
373.6178155146337
 30
0.0
 10
388.3468944728378
 20
371.9277857853165
 30
0.0
 10
387.2238572131401
 20
370.4276624660599
 30
0.0
 10
386.411374879645
 20
369.5112503640651
 30
0.0
 10
385.6427905748099
 20
368.7677957744265
 30
0.0
 10
384.9779236282569
 20
368.1894981014752
 30
0.0
 10
384.264158490276
 20
367.6330171560609
 30
0.0
 10
383.3147274893845
 20
366.9937112310623
 30
0.0
 10
381.9995354242023
 20
366.3129924183735
 30
0.0
 10
380.2030671540497
 20
365.7670737465554
 30
0.0
 10
378.2573102022261
 20
365.4842806816749
 30
0.0
 10
376.5039239480722
 20
365.3852552518021
 30
0.0
 10
374.7588501707332
 20
365.4295204489954
 30
0.0
 10
373.1999867995975
 20
365.5579861732684
 30
0.0
 10
372.3290764699831
 20
365.6612268150704
 30
0.0
 10
371.9063935836371
 20
365.7184974457706
 30
0.0
  0
CIRCLE
  5
E2
330
1F
100
AcDbEntity
  8
0
  6
Continuous
 62
     7
370
    25
100
AcDbCircle
 10
460.5311293599
 20
354.1390386428
 30
0.0
 40
4.0
  0
CIRCLE
  5
E3
330
1F
100
AcDbEntity
  8
0
  6
Continuous
 62
     7
370
    25
100
AcDbCircle
 10
516.6709110805
 20
430.4166491835
 30
0.0
 40
4.0
  0
CIRCLE
  5
E4
330
1F
100
AcDbEntity
  8
0
  6
Continuous
 62
     7
370
    25
100
AcDbCircle
 10
541.2956581677
 20
431.7511042121
 30
0.0
 40
4.0
  0
CIRCLE
  5
E5
330
1F
100
AcDbEntity
  8
0
  6
Continuous
 62
     7
370
    25
100
AcDbCircle
 10
503.601596218
 20
400.7711015525
 30
0.0
 40
4.0
  0
CIRCLE
  5
E6
330
1F
100
AcDbEntity
  8
0
  6
Continuous
 62
     7
370
    25
100
AcDbCircle
 10
490.6641574797
 20
437.6161146436
 30
0.0
 40
4.0
  0
CIRCLE
  5
E7
330
1F
100
AcDbEntity
  8
0
  6
Continuous
 62
     7
370
    25
100
AcDbCircle
 10
391.7162094273
 20
343.6514853181
 30
0.0
 40
4.000000000000057
  0
CIRCLE
  5
E8
330
1F
100
AcDbEntity
  8
0
  6
Continuous
 62
     7
370
    25
100
AcDbCircle
 10
407.396237156
 20
400.182111603
 30
0.0
 40
4.0
  0
CIRCLE
  5
E9
330
1F
100
AcDbEntity
  8
0
  6
Continuous
 62
     7
370
    25
100
AcDbCircle
 10
451.3415780271
 20
398.1189500597
 30
0.0
 40
4.0
  0
CIRCLE
  5
EA
330
1F
100
AcDbEntity
  8
0
  6
Continuous
 62
     7
370
    25
100
AcDbCircle
 10
300.8716210221
 20
443.1295842736
 30
0.0
 40
4.000000000000057
  0
CIRCLE
  5
EB
330
1F
100
AcDbEntity
  8
0
  6
Continuous
 62
     7
370
    25
100
AcDbCircle
 10
487.5531155515
 20
399.0946996526
 30
0.0
 40
4.249999999999943
  0
CIRCLE
  5
EC
330
1F
100
AcDbEntity
  8
0
  6
Continuous
 62
     7
370
    25
100
AcDbCircle
 10
375.5531155515
 20
399.0946996526
 30
0.0
 40
4.25
  0
ARC
  5
ED
330
1F
100
AcDbEntity
  8
0
  6
Continuous
 62
     7
370
    25
100
AcDbCircle
 10
582.684453622
 20
537.1793889525
 30
0.0
 40
6.0
100
AcDbArc
 50
180.0
 51
251.0209195206
  0
LINE
  5
EE
330
1F
100
AcDbEntity
  8
0
  6
Continuous
 62
     7
370
    25
100
AcDbLine
 10
576.6844496247
 20
591.9608970155
 30
0.0
 11
576.684454893
 21
537.1793874302
 31
0.0
  0
ARC
  5
EF
330
1F
100
AcDbEntity
  8
0
  6
Continuous
 62
     7
370
    25
100
AcDbCircle
 10
580.684453622
 20
591.9609014532
 30
0.0
 40
4.000000000000093
100
AcDbArc
 50
64.3242910776
 51
180.0
  0
ARC
  5
F0
330
1F
100
AcDbEntity
  8
0
  6
Continuous
 62
     7
370
    25
100
AcDbCircle
 10
653.9082709582
 20
744.2739756613
 30
0.0
 40
165.0000000000001
100
AcDbArc
 50
244.3242910776
 51
295.6757089224
  0
ARC
  5
F1
330
1F
100
AcDbEntity
  8
0
  6
Continuous
 62
     7
370
    25
100
AcDbCircle
 10
727.1320882944
 20
591.9609014532
 30
0.0
 40
4.0
100
AcDbArc
 50
0.0
 51
115.6757089224
  0
LINE
  5
F2
330
1F
100
AcDbEntity
  8
0
  6
Continuous
 62
     7
370
    25
100
AcDbLine
 10
731.1320922917
 20
591.9608970155
 30
0.0
 11
731.1320870234
 21
537.1793874302
 31
0.0
  0
ARC
  5
F3
330
1F
100
AcDbEntity
  8
0
  6
Continuous
 62
     7
370
    25
100
AcDbCircle
 10
725.1320882944
 20
537.1793889525
 30
0.0
 40
6.000000000000027
100
AcDbArc
 50
288.9790804794
 51
0.0
  0
ARC
  5
F4
330
1F
100
AcDbEntity
  8
0
  6
Continuous
 62
     7
370
    25
100
AcDbCircle
 10
580.684453622
 20
589.5701452028
 30
0.0
 40
1.75
100
AcDbArc
 50
0.0
 51
180.0
  0
LINE
  5
F5
330
1F
100
AcDbEntity
  8
0
  6
Continuous
 62
     7
370
    25
100
AcDbLine
 10
578.9344538641
 20
559.570143046
 30
0.0
 11
578.9344538641
 21
589.5701433755
 31
0.0
  0
ARC
  5
F6
330
1F
100
AcDbEntity
  8
0
  6
Continuous
 62
     7
370
    25
100
AcDbCircle
 10
580.684453622
 20
559.5701452028
 30
0.0
 40
1.750000000000114
100
AcDbArc
 50
180.0
 51
0.0
  0
LINE
  5
F7
330
1F
100
AcDbEntity
  8
0
  6
Continuous
 62
     7
370
    25
100
AcDbLine
 10
582.434454605
 20
559.570143046
 30
0.0
 11
582.4344519708
 21
589.5701460097
 31
0.0
  0
LINE
  5
F8
330
1F
100
AcDbEntity
  8
0
  6
Continuous
 62
     7
370
    25
100
AcDbLine
 10
728.8820880523
 20
559.570143046
 30
0.0
 11
728.8820880523
 21
589.5701433755
 31
0.0
  0
ARC
  5
F9
330
1F
100
AcDbEntity
  8
0
  6
Continuous
 62
     7
370
    25
100
AcDbCircle
 10
727.1320882944
 20
589.5701452028
 30
0.0
 40
1.75
100
AcDbArc
 50
360.0
 51
180.0
  0
LINE
  5
FA
330
1F
100
AcDbEntity
  8
0
  6
Continuous
 62
     7
370
    25
100
AcDbLine
 10
725.3820873114
 20
559.570143046
 30
0.0
 11
725.3820899456
 21
589.5701460097
 31
0.0
  0
ARC
  5
FB
330
1F
100
AcDbEntity
  8
0
  6
Continuous
 62
     7
370
    25
100
AcDbCircle
 10
727.1320882944
 20
559.5701452028
 30
0.0
 40
1.75
100
AcDbArc
 50
180.0
 51
0.0
  0
ARC
  5
FC
330
1F
100
AcDbEntity
  8
0
  6
Continuous
 62
     7
370
    25
100
AcDbCircle
 10
653.9082709582
 20
744.2739756613
 30
0.0
 40
225.0
100
AcDbArc
 50
251.0209195206
 51
288.9790804794
  0
ARC
  5
FD
330
1F
100
AcDbEntity
  8
0
  6
Continuous
 62
     7
370
    25
100
AcDbCircle
 10
582.1947504494
 20
471.2501092265
 30
0.0
 40
6.000000000000027
100
AcDbArc
 50
180.0
 51
251.0209195206
  0
LINE
  5
FE
330
1F
100
AcDbEntity
  8
0
  6
Continuous
 62
     7
370
    25
100
AcDbLine
 10
576.1947464521
 20
526.0316172895
 30
0.0
 11
576.1947517204
 21
471.2501077042
 31
0.0
  0
ARC
  5
FF
330
1F
100
AcDbEntity
  8
0
  6
Continuous
 62
     7
370
    25
100
AcDbCircle
 10
580.1947504494
 20
526.0316217272
 30
0.0
 40
3.999999999999889
100
AcDbArc
 50
64.3242910776
 51
180.0
  0
ARC
  5
100
330
1F
100
AcDbEntity
  8
0
  6
Continuous
 62
     7
370
    25
100
AcDbCircle
 10
653.4185677856
 20
678.3446959353
 30
0.0
 40
165.0000000000001
100
AcDbArc
 50
244.3242910776
 51
295.6757089224
  0
ARC
  5
101
330
1F
100
AcDbEntity
  8
0
  6
Continuous
 62
     7
370
    25
100
AcDbCircle
 10
726.6423851218
 20
526.0316217272
 30
0.0
 40
4.0
100
AcDbArc
 50
0.0
 51
115.6757089224
  0
LINE
  5
102
330
1F
100
AcDbEntity
  8
0
  6
Continuous
 62
     7
370
    25
100
AcDbLine
 10
730.6423891191
 20
526.0316172895
 30
0.0
 11
730.6423838508
 21
471.2501077042
 31
0.0
  0
ARC
  5
103
330
1F
100
AcDbEntity
  8
0
  6
Continuous
 62
     7
370
    25
100
AcDbCircle
 10
724.6423851218
 20
471.2501092265
 30
0.0
 40
6.000000000000044
100
AcDbArc
 50
288.9790804794
 51
0.0
  0
ARC
  5
104
330
1F
100
AcDbEntity
  8
0
  6
Continuous
 62
     7
370
    25
100
AcDbCircle
 10
580.1947504494
 20
523.6408654768
 30
0.0
 40
1.750000000000227
100
AcDbArc
 50
0.0
 51
180.0
  0
LINE
  5
105
330
1F
100
AcDbEntity
  8
0
  6
Continuous
 62
     7
370
    25
100
AcDbLine
 10
578.4447506915
 20
493.64086332
 30
0.0
 11
578.4447506915
 21
523.6408636495
 31
0.0
  0
ARC
  5
106
330
1F
100
AcDbEntity
  8
0
  6
Continuous
 62
     7
370
    25
100
AcDbCircle
 10
580.1947504494
 20
493.6408654768
 30
0.0
 40
1.75
100
AcDbArc
 50
180.0
 51
0.0
  0
LINE
  5
107
330
1F
100
AcDbEntity
  8
0
  6
Continuous
 62
     7
370
    25
100
AcDbLine
 10
581.9447514324
 20
493.64086332
 30
0.0
 11
581.9447487982
 21
523.6408662837
 31
0.0
  0
LINE
  5
108
330
1F
100
AcDbEntity
  8
0
  6
Continuous
 62
     7
370
    25
100
AcDbLine
 10
728.3923848798
 20
493.64086332
 30
0.0
 11
728.3923848798
 21
523.6408636495
 31
0.0
  0
ARC
  5
109
330
1F
100
AcDbEntity
  8
0
  6
Continuous
 62
     7
370
    25
100
AcDbCircle
 10
726.6423851218
 20
523.6408654768
 30
0.0
 40
1.750000000000227
100
AcDbArc
 50
0.0
 51
180.0
  0
LINE
  5
10A
330
1F
100
AcDbEntity
  8
0
  6
Continuous
 62
     7
370
    25
100
AcDbLine
 10
724.8923841389
 20
493.64086332
 30
0.0
 11
724.892386773
 21
523.6408662837
 31
0.0
  0
ARC
  5
10B
330
1F
100
AcDbEntity
  8
0
  6
Continuous
 62
     7
370
    25
100
AcDbCircle
 10
726.6423851218
 20
493.6408654768
 30
0.0
 40
1.750000000000227
100
AcDbArc
 50
180.0
 51
0.0
  0
ARC
  5
10C
330
1F
100
AcDbEntity
  8
0
  6
Continuous
 62
     7
370
    25
100
AcDbCircle
 10
653.4185677856
 20
678.3446959353
 30
0.0
 40
225.0
100
AcDbArc
 50
251.0209195206
 51
288.9790804794
  0
ARC
  5
10D
330
1F
100
AcDbEntity
  8
0
  6
Continuous
 62
     7
370
    25
100
AcDbCircle
 10
581.9585035493
 20
404.7174238758
 30
0.0
 40
6.000000000000027
100
AcDbArc
 50
180.0
 51
251.0209195206
  0
LINE
  5
10E
330
1F
100
AcDbEntity
  8
0
  6
Continuous
 62
     7
370
    25
100
AcDbLine
 10
575.958499552
 20
459.4989319388
 30
0.0
 11
575.9585048203
 21
404.7174223535
 31
0.0
  0
ARC
  5
10F
330
1F
100
AcDbEntity
  8
0
  6
Continuous
 62
     7
370
    25
100
AcDbCircle
 10
579.9585035493
 20
459.4989363765
 30
0.0
 40
3.999999999999991
100
AcDbArc
 50
64.3242910776
 51
180.0
  0
ARC
  5
110
330
1F
100
AcDbEntity
  8
0
  6
Continuous
 62
     7
370
    25
100
AcDbCircle
 10
653.1823208855
 20
611.8120105846
 30
0.0
 40
165.0
100
AcDbArc
 50
244.3242910776
 51
295.6757089224
  0
ARC
  5
111
330
1F
100
AcDbEntity
  8
0
  6
Continuous
 62
     7
370
    25
100
AcDbCircle
 10
726.4061382217
 20
459.4989363765
 30
0.0
 40
4.0
100
AcDbArc
 50
0.0
 51
115.6757089224
  0
LINE
  5
112
330
1F
100
AcDbEntity
  8
0
  6
Continuous
 62
     7
370
    25
100
AcDbLine
 10
730.406142219
 20
459.4989319388
 30
0.0
 11
730.4061369507
 21
404.7174223535
 31
0.0
  0
ARC
  5
113
330
1F
100
AcDbEntity
  8
0
  6
Continuous
 62
     7
370
    25
100
AcDbCircle
 10
724.4061382217
 20
404.7174238758
 30
0.0
 40
6.000000000000081
100
AcDbArc
 50
288.9790804794
 51
0.0
  0
ARC
  5
114
330
1F
100
AcDbEntity
  8
0
  6
Continuous
 62
     7
370
    25
100
AcDbCircle
 10
579.9585035493
 20
457.1081801261
 30
0.0
 40
1.750000000000114
100
AcDbArc
 50
0.0
 51
180.0
  0
LINE
  5
115
330
1F
100
AcDbEntity
  8
0
  6
Continuous
 62
     7
370
    25
100
AcDbLine
 10
578.2085037914
 20
427.1081779693
 30
0.0
 11
578.2085037914
 21
457.1081782988
 31
0.0
  0
ARC
  5
116
330
1F
100
AcDbEntity
  8
0
  6
Continuous
 62
     7
370
    25
100
AcDbCircle
 10
579.9585035493
 20
427.1081801261
 30
0.0
 40
1.75
100
AcDbArc
 50
180.0
 51
0.0
  0
LINE
  5
117
330
1F
100
AcDbEntity
  8
0
  6
Continuous
 62
     7
370
    25
100
AcDbLine
 10
581.7085045323
 20
427.1081779693
 30
0.0
 11
581.7085018981
 21
457.108180933
 31
0.0
  0
LINE
  5
118
330
1F
100
AcDbEntity
  8
0
  6
Continuous
 62
     7
370
    25
100
AcDbLine
 10
728.1561379796
 20
427.1081779693
 30
0.0
 11
728.1561379796
 21
457.1081782988
 31
0.0
  0
ARC
  5
119
330
1F
100
AcDbEntity
  8
0
  6
Continuous
 62
     7
370
    25
100
AcDbCircle
 10
726.4061382217
 20
457.1081801261
 30
0.0
 40
1.750000000000114
100
AcDbArc
 50
360.0
 51
180.0
  0
LINE
  5
11A
330
1F
100
AcDbEntity
  8
0
  6
Continuous
 62
     7
370
    25
100
AcDbLine
 10
724.6561372388
 20
427.1081779693
 30
0.0
 11
724.6561398729
 21
457.108180933
 31
0.0
  0
ARC
  5
11B
330
1F
100
AcDbEntity
  8
0
  6
Continuous
 62
     7
370
    25
100
AcDbCircle
 10
726.4061382217
 20
427.1081801261
 30
0.0
 40
1.750000000000114
100
AcDbArc
 50
180.0
 51
0.0
  0
ARC
  5
11C
330
1F
100
AcDbEntity
  8
0
  6
Continuous
 62
     7
370
    25
100
AcDbCircle
 10
653.1823208855
 20
611.8120105846
 30
0.0
 40
225.0
100
AcDbArc
 50
251.0209195206
 51
288.9790804794
  0
ARC
  5
11D
330
1F
100
AcDbEntity
  8
0
  6
Continuous
 62
     7
370
    25
100
AcDbCircle
 10
581.4688003768
 20
338.7881441498
 30
0.0
 40
6.000000000000027
100
AcDbArc
 50
180.0
 51
251.0209195206
  0
LINE
  5
11E
330
1F
100
AcDbEntity
  8
0
  6
Continuous
 62
     7
370
    25
100
AcDbLine
 10
575.4687963794
 20
393.5696522128
 30
0.0
 11
575.4688016478
 21
338.7881426275
 31
0.0
  0
ARC
  5
11F
330
1F
100
AcDbEntity
  8
0
  6
Continuous
 62
     7
370
    25
100
AcDbCircle
 10
579.4688003768
 20
393.5696566505
 30
0.0
 40
3.999999999999991
100
AcDbArc
 50
64.3242910776
 51
180.0
  0
ARC
  5
120
330
1F
100
AcDbEntity
  8
0
  6
Continuous
 62
     7
370
    25
100
AcDbCircle
 10
652.6926177129
 20
545.8827308586
 30
0.0
 40
165.0
100
AcDbArc
 50
244.3242910776
 51
295.6757089224
  0
ARC
  5
121
330
1F
100
AcDbEntity
  8
0
  6
Continuous
 62
     7
370
    25
100
AcDbCircle
 10
725.9164350491
 20
393.5696566505
 30
0.0
 40
4.0
100
AcDbArc
 50
0.0
 51
115.6757089224
  0
LINE
  5
122
330
1F
100
AcDbEntity
  8
0
  6
Continuous
 62
     7
370
    25
100
AcDbLine
 10
729.9164390465
 20
393.5696522128
 30
0.0
 11
729.9164337781
 21
338.7881426275
 31
0.0
  0
ARC
  5
123
330
1F
100
AcDbEntity
  8
0
  6
Continuous
 62
     7
370
    25
100
AcDbCircle
 10
723.9164350491
 20
338.7881441498
 30
0.0
 40
6.000000000000027
100
AcDbArc
 50
288.9790804794
 51
0.0
  0
ARC
  5
124
330
1F
100
AcDbEntity
  8
0
  6
Continuous
 62
     7
370
    25
100
AcDbCircle
 10
579.4688003768
 20
391.1789004001
 30
0.0
 40
1.750000000000114
100
AcDbArc
 50
0.0
 51
180.0
  0
LINE
  5
125
330
1F
100
AcDbEntity
  8
0
  6
Continuous
 62
     7
370
    25
100
AcDbLine
 10
577.7188006188
 20
361.1788982433
 30
0.0
 11
577.7188006188
 21
391.1788985728
 31
0.0
  0
ARC
  5
126
330
1F
100
AcDbEntity
  8
0
  6
Continuous
 62
     7
370
    25
100
AcDbCircle
 10
579.4688003768
 20
361.1789004001
 30
0.0
 40
1.75
100
AcDbArc
 50
180.0
 51
0.0
  0
LINE
  5
127
330
1F
100
AcDbEntity
  8
0
  6
Continuous
 62
     7
370
    25
100
AcDbLine
 10
581.2188013597
 20
361.1788982433
 30
0.0
 11
581.2187987255
 21
391.178901207
 31
0.0
  0
LINE
  5
128
330
1F
100
AcDbEntity
  8
0
  6
Continuous
 62
     7
370
    25
100
AcDbLine
 10
727.6664348071
 20
361.1788982433
 30
0.0
 11
727.6664348071
 21
391.1788985728
 31
0.0
  0
ARC
  5
129
330
1F
100
AcDbEntity
  8
0
  6
Continuous
 62
     7
370
    25
100
AcDbCircle
 10
725.9164350491
 20
391.1789004001
 30
0.0
 40
1.750000000000114
100
AcDbArc
 50
360.0
 51
180.0
  0
LINE
  5
12A
330
1F
100
AcDbEntity
  8
0
  6
Continuous
 62
     7
370
    25
100
AcDbLine
 10
724.1664340662
 20
361.1788982433
 30
0.0
 11
724.1664367003
 21
391.178901207
 31
0.0
  0
ARC
  5
12B
330
1F
100
AcDbEntity
  8
0
  6
Continuous
 62
     7
370
    25
100
AcDbCircle
 10
725.9164350491
 20
361.1789004001
 30
0.0
 40
1.750000000000114
100
AcDbArc
 50
180.0
 51
0.0
  0
ARC
  5
12C
330
1F
100
AcDbEntity
  8
0
  6
Continuous
 62
     7
370
    25
100
AcDbCircle
 10
652.6926177129
 20
545.8827308586
 30
0.0
 40
225.0
100
AcDbArc
 50
251.0209195206
 51
288.9790804794
  0
ARC
  5
12D
330
1F
100
AcDbEntity
  8
0
  6
Continuous
 62
     7
370
    25
100
AcDbCircle
 10
580.8760729036
 20
272.4965692538
 30
0.0
 40
6.000000000000027
100
AcDbArc
 50
180.0
 51
251.0209195206
  0
LINE
  5
12E
330
1F
100
AcDbEntity
  8
0
  6
Continuous
 62
     7
370
    25
100
AcDbLine
 10
574.8760689063
 20
327.2780773168
 30
0.0
 11
574.8760741746
 21
272.4965677315
 31
0.0
  0
ARC
  5
12F
330
1F
100
AcDbEntity
  8
0
  6
Continuous
 62
     7
370
    25
100
AcDbCircle
 10
578.8760729036
 20
327.2780817544
 30
0.0
 40
3.999999999999991
100
AcDbArc
 50
64.3242910776
 51
180.0
  0
ARC
  5
130
330
1F
100
AcDbEntity
  8
0
  6
Continuous
 62
     7
370
    25
100
AcDbCircle
 10
652.0998902398
 20
479.5911559625
 30
0.0
 40
165.0000000000001
100
AcDbArc
 50
244.3242910776
 51
295.6757089224
  0
ARC
  5
131
330
1F
100
AcDbEntity
  8
0
  6
Continuous
 62
     7
370
    25
100
AcDbCircle
 10
725.323707576
 20
327.2780817544
 30
0.0
 40
4.0
100
AcDbArc
 50
0.0
 51
115.6757089224
  0
LINE
  5
132
330
1F
100
AcDbEntity
  8
0
  6
Continuous
 62
     7
370
    25
100
AcDbLine
 10
729.3237115734
 20
327.2780773168
 30
0.0
 11
729.323706305
 21
272.4965677315
 31
0.0
  0
ARC
  5
133
330
1F
100
AcDbEntity
  8
0
  6
Continuous
 62
     7
370
    25
100
AcDbCircle
 10
723.323707576
 20
272.4965692538
 30
0.0
 40
6.000000000000081
100
AcDbArc
 50
288.9790804794
 51
0.0
  0
ARC
  5
134
330
1F
100
AcDbEntity
  8
0
  6
Continuous
 62
     7
370
    25
100
AcDbCircle
 10
578.8760729036
 20
324.8873255041
 30
0.0
 40
1.750000000000114
100
AcDbArc
 50
0.0
 51
180.0
  0
LINE
  5
135
330
1F
100
AcDbEntity
  8
0
  6
Continuous
 62
     7
370
    25
100
AcDbLine
 10
577.1260731457
 20
294.8873233472
 30
0.0
 11
577.1260731457
 21
324.8873236768
 31
0.0
  0
ARC
  5
136
330
1F
100
AcDbEntity
  8
0
  6
Continuous
 62
     7
370
    25
100
AcDbCircle
 10
578.8760729036
 20
294.8873255041
 30
0.0
 40
1.750000000000114
100
AcDbArc
 50
180.0
 51
0.0
  0
LINE
  5
137
330
1F
100
AcDbEntity
  8
0
  6
Continuous
 62
     7
370
    25
100
AcDbLine
 10
580.6260738866
 20
294.8873233472
 30
0.0
 11
580.6260712524
 21
324.8873263109
 31
0.0
  0
LINE
  5
138
330
1F
100
AcDbEntity
  8
0
  6
Continuous
 62
     7
370
    25
100
AcDbLine
 10
727.073707334
 20
294.8873233472
 30
0.0
 11
727.073707334
 21
324.8873236768
 31
0.0
  0
ARC
  5
139
330
1F
100
AcDbEntity
  8
0
  6
Continuous
 62
     7
370
    25
100
AcDbCircle
 10
725.323707576
 20
324.8873255041
 30
0.0
 40
1.750000000000114
100
AcDbArc
 50
360.0
 51
180.0
  0
LINE
  5
13A
330
1F
100
AcDbEntity
  8
0
  6
Continuous
 62
     7
370
    25
100
AcDbLine
 10
723.5737065931
 20
294.8873233472
 30
0.0
 11
723.5737092272
 21
324.8873263109
 31
0.0
  0
ARC
  5
13B
330
1F
100
AcDbEntity
  8
0
  6
Continuous
 62
     7
370
    25
100
AcDbCircle
 10
725.323707576
 20
294.8873255041
 30
0.0
 40
1.750000000000114
100
AcDbArc
 50
180.0
 51
0.0
  0
ARC
  5
13C
330
1F
100
AcDbEntity
  8
0
  6
Continuous
 62
     7
370
    25
100
AcDbCircle
 10
652.0998902398
 20
479.5911559625
 30
0.0
 40
225.0000000000001
100
AcDbArc
 50
251.0209195206
 51
288.9790804794
  0
ARC
  5
13D
330
1F
100
AcDbEntity
  8
0
  6
Continuous
 62
     7
370
    25
100
AcDbCircle
 10
580.3863697311
 20
206.5672895278
 30
0.0
 40
6.000000000000053
100
AcDbArc
 50
180.0
 51
251.0209195206
  0
LINE
  5
13E
330
1F
100
AcDbEntity
  8
0
  6
Continuous
 62
     7
370
    25
100
AcDbLine
 10
574.3863657337
 20
261.3487975908
 30
0.0
 11
574.3863710021
 21
206.5672880055
 31
0.0
  0
ARC
  5
13F
330
1F
100
AcDbEntity
  8
0
  6
Continuous
 62
     7
370
    25
100
AcDbCircle
 10
578.3863697311
 20
261.3488020284
 30
0.0
 40
3.999999999999991
100
AcDbArc
 50
64.3242910776
 51
180.0
  0
ARC
  5
140
330
1F
100
AcDbEntity
  8
0
  6
Continuous
 62
     7
370
    25
100
AcDbCircle
 10
651.6101870672
 20
413.6618762365
 30
0.0
 40
165.0000000000001
100
AcDbArc
 50
244.3242910776
 51
295.6757089224
  0
ARC
  5
141
330
1F
100
AcDbEntity
  8
0
  6
Continuous
 62
     7
370
    25
100
AcDbCircle
 10
724.8340044034
 20
261.3488020284
 30
0.0
 40
4.0
100
AcDbArc
 50
0.0
 51
115.6757089224
  0
LINE
  5
142
330
1F
100
AcDbEntity
  8
0
  6
Continuous
 62
     7
370
    25
100
AcDbLine
 10
728.8340084008
 20
261.3487975908
 30
0.0
 11
728.8340031324
 21
206.5672880055
 31
0.0
  0
ARC
  5
143
330
1F
100
AcDbEntity
  8
0
  6
Continuous
 62
     7
370
    25
100
AcDbCircle
 10
722.8340044034
 20
206.5672895278
 30
0.0
 40
6.000000000000114
100
AcDbArc
 50
288.9790804794
 51
0.0
  0
ARC
  5
144
330
1F
100
AcDbEntity
  8
0
  6
Continuous
 62
     7
370
    25
100
AcDbCircle
 10
578.3863697311
 20
258.9580457781
 30
0.0
 40
1.750000000000227
100
AcDbArc
 50
0.0
 51
180.0
  0
LINE
  5
145
330
1F
100
AcDbEntity
  8
0
  6
Continuous
 62
     7
370
    25
100
AcDbLine
 10
576.6363699731
 20
228.9580436212
 30
0.0
 11
576.6363699731
 21
258.9580439508
 31
0.0
  0
ARC
  5
146
330
1F
100
AcDbEntity
  8
0
  6
Continuous
 62
     7
370
    25
100
AcDbCircle
 10
578.3863697311
 20
228.9580457781
 30
0.0
 40
1.75
100
AcDbArc
 50
180.0
 51
0.0
  0
LINE
  5
147
330
1F
100
AcDbEntity
  8
0
  6
Continuous
 62
     7
370
    25
100
AcDbLine
 10
580.136370714
 20
228.9580436212
 30
0.0
 11
580.1363680798
 21
258.9580465849
 31
0.0
  0
LINE
  5
148
330
1F
100
AcDbEntity
  8
0
  6
Continuous
 62
     7
370
    25
100
AcDbLine
 10
726.5840041614
 20
228.9580436212
 30
0.0
 11
726.5840041614
 21
258.9580439508
 31
0.0
  0
ARC
  5
149
330
1F
100
AcDbEntity
  8
0
  6
Continuous
 62
     7
370
    25
100
AcDbCircle
 10
724.8340044034
 20
258.9580457781
 30
0.0
 40
1.750000000000227
100
AcDbArc
 50
0.0
 51
180.0
  0
LINE
  5
14A
330
1F
100
AcDbEntity
  8
0
  6
Continuous
 62
     7
370
    25
100
AcDbLine
 10
723.0840034205
 20
228.9580436212
 30
0.0
 11
723.0840060547
 21
258.9580465849
 31
0.0
  0
ARC
  5
14B
330
1F
100
AcDbEntity
  8
0
  6
Continuous
 62
     7
370
    25
100
AcDbCircle
 10
724.8340044034
 20
228.9580457781
 30
0.0
 40
1.750000000000227
100
AcDbArc
 50
180.0
 51
0.0
  0
ARC
  5
14C
330
1F
100
AcDbEntity
  8
0
  6
Continuous
 62
     7
370
    25
100
AcDbCircle
 10
651.6101870672
 20
413.6618762365
 30
0.0
 40
225.0000000000001
100
AcDbArc
 50
251.0209195206
 51
288.9790804794
  0
ARC
  5
14D
330
1F
100
AcDbEntity
  8
0
  6
Continuous
 62
     7
370
    25
100
AcDbCircle
 10
883.5813363379
 20
561.0575666998
 30
0.0
 40
3.499999999999886
100
AcDbArc
 50
180.0
 51
270.0
  0
LINE
  5
14E
330
1F
100
AcDbEntity
  8
0
  6
Continuous
 62
     7
370
    25
100
AcDbLine
 10
883.5813357254
 20
557.5575638021
 30
0.0
 11
884.0813290577
 21
557.5575690704
 31
0.0
  0
ARC
  5
14F
330
1F
100
AcDbEntity
  8
0
  6
Continuous
 62
     7
370
    25
100
AcDbCircle
 10
884.0813363379
 20
554.0575666998
 30
0.0
 40
3.500000000000114
100
AcDbArc
 50
0.0
 51
90.0
  0
LINE
  5
150
330
1F
100
AcDbEntity
  8
0
  6
Continuous
 62
     7
370
    25
100
AcDbLine
 10
887.5813297985
 20
554.0575683295
 30
0.0
 11
887.5813350669
 21
538.6668089272
 31
0.0
  0
ARC
  5
151
330
1F
100
AcDbEntity
  8
0
  6
Continuous
 62
     7
370
    25
100
AcDbCircle
 10
881.5813363379
 20
538.6668104495
 30
0.0
 40
6.000000000000114
100
AcDbArc
 50
288.9790804794
 51
0.0
  0
ARC
  5
152
330
1F
100
AcDbEntity
  8
0
  6
Continuous
 62
     7
370
    25
100
AcDbCircle
 10
810.3575190017
 20
745.7613971582
 30
0.0
 40
224.9999999999999
100
AcDbArc
 50
251.0209195206
 51
288.9790804794
  0
ARC
  5
153
330
1F
100
AcDbEntity
  8
0
  6
Continuous
 62
     7
370
    25
100
AcDbCircle
 10
739.1337016656
 20
538.6668104495
 30
0.0
 40
6.0
100
AcDbArc
 50
180.0
 51
251.0209195206
  0
LINE
  5
154
330
1F
100
AcDbEntity
  8
0
  6
Continuous
 62
     7
370
    25
100
AcDbLine
 10
733.1337082049
 20
554.0575683295
 30
0.0
 11
733.1337029365
 21
538.6668089272
 31
0.0
  0
ARC
  5
155
330
1F
100
AcDbEntity
  8
0
  6
Continuous
 62
     7
370
    25
100
AcDbCircle
 10
736.6337016656
 20
554.0575666998
 30
0.0
 40
3.5
100
AcDbArc
 50
90.0
 51
180.0
  0
LINE
  5
156
330
1F
100
AcDbEntity
  8
0
  6
Continuous
 62
     7
370
    25
100
AcDbLine
 10
736.6337089458
 20
557.5575690704
 30
0.0
 11
737.133702278
 21
557.5575638021
 31
0.0
  0
LINE
  5
157
330
1F
100
AcDbEntity
  8
0
  6
Continuous
 62
     7
370
    25
100
AcDbLine
 10
740.6337030189
 20
561.057564543
 30
0.0
 11
740.6336977506
 21
593.8806503478
 31
0.0
  0
ARC
  5
158
330
1F
100
AcDbEntity
  8
0
  6
Continuous
 62
     7
370
    25
100
AcDbCircle
 10
742.1337016656
 20
593.8806520057
 30
0.0
 40
1.500000000000062
100
AcDbArc
 50
65.810701971
 51
180.0
  0
ARC
  5
159
330
1F
100
AcDbEntity
  8
0
  6
Continuous
 62
     7
370
    25
100
AcDbCircle
 10
810.3575190017
 20
745.7613971582
 30
0.0
 40
165.0
100
AcDbArc
 50
245.810701971
 51
248.7059498339
  0
ARC
  5
15A
330
1F
100
AcDbEntity
  8
0
  6
Continuous
 62
     7
370
    25
100
AcDbCircle
 10
749.7107212104
 20
590.1626634948
 30
0.0
 40
1.999999999999963
100
AcDbArc
 50
3.8047234673
 51
68.7059498339
  0
LINE
  5
15B
330
1F
100
AcDbEntity
  8
0
  6
Continuous
 62
     7
370
    25
100
AcDbLine
 10
751.7063175938
 20
590.2953759956
 30
0.0
 11
752.5889463586
 21
577.0232596426
 31
0.0
  0
ARC
  5
15C
330
1F
100
AcDbEntity
  8
0
  6
Continuous
 62
     7
370
    25
100
AcDbCircle
 10
722.6550653104
 20
575.0325723853
 30
0.0
 40
30.00000000000005
100
AcDbArc
 50
343.3174083526
 51
3.8047234673
  0
LINE
  5
15D
330
1F
100
AcDbEntity
  8
0
  6
Continuous
 62
     7
370
    25
100
AcDbLine
 10
751.3923551826
 20
566.4204823298
 30
0.0
 11
743.2898395589
 21
539.3835476962
 31
0.0
  0
ARC
  5
15E
330
1F
100
AcDbEntity
  8
0
  6
Continuous
 62
     7
370
    25
100
AcDbCircle
 10
748.0793902842
 20
537.9482029618
 30
0.0
 40
4.999999999999993
100
AcDbArc
 50
163.3174083526
 51
343.3174083526
  0
LINE
  5
15F
330
1F
100
AcDbEntity
  8
0
  6
Continuous
 62
     7
370
    25
100
AcDbLine
 10
760.9714540336
 20
563.5497919891
 30
0.0
 11
752.86893841
 21
536.5128573555
 31
0.0
  0
ARC
  5
160
330
1F
100
AcDbEntity
  8
0
  6
Continuous
 62
     7
370
    25
100
AcDbCircle
 10
789.7087485288
 20
554.9377081944
 30
0.0
 40
30.00000000000001
100
AcDbArc
 50
142.8300932378
 51
163.3174083526
  0
LINE
  5
161
330
1F
100
AcDbEntity
  8
0
  6
Continuous
 62
     7
370
    25
100
AcDbLine
 10
773.2952821003
 20
582.9441858986
 30
0.0
 11
765.8033267976
 21
573.0631259514
 31
0.0
  0
ARC
  5
162
330
1F
100
AcDbEntity
  8
0
  6
Continuous
 62
     7
370
    25
100
AcDbCircle
 10
774.0921249777
 20
582.3399994219
 30
0.0
 40
1.000000000000004
100
AcDbArc
 50
12.146019291
 51
142.8300932378
  0
LINE
  5
163
330
1F
100
AcDbEntity
  8
0
  6
Continuous
 62
     7
370
    25
100
AcDbLine
 10
775.0697381795
 20
582.5503973563
 30
0.0
 11
777.6787808847
 21
570.4277994179
 31
0.0
  0
ARC
  5
164
330
1F
100
AcDbEntity
  8
0
  6
Continuous
 62
     7
370
    25
100
AcDbCircle
 10
748.3503485346
 20
564.1156903483
 30
0.0
 40
30.00000000000001
100
AcDbArc
 50
351.6587041763
 51
12.146019291
  0
LINE
  5
165
330
1F
100
AcDbEntity
  8
0
  6
Continuous
 62
     7
370
    25
100
AcDbLine
 10
778.0329882679
 20
559.7636088785
 30
0.0
 11
773.9384166668
 21
531.8372598375
 31
0.0
  0
ARC
  5
166
330
1F
100
AcDbEntity
  8
0
  6
Continuous
 62
     7
370
    25
100
AcDbCircle
 10
778.8855277938
 20
531.1119089965
 30
0.0
 40
4.999999999999958
100
AcDbArc
 50
171.6587041763
 51
351.6587041763
  0
LINE
  5
167
330
1F
100
AcDbEntity
  8
0
  6
Continuous
 62
     7
370
    25
100
AcDbLine
 10
787.9272085686
 20
558.3129196211
 30
0.0
 11
783.8326422358
 21
530.3865653117
 31
0.0
  0
ARC
  5
168
330
1F
100
AcDbEntity
  8
0
  6
Continuous
 62
     7
370
    25
100
AcDbCircle
 10
817.6098526668
 20
553.9608349895
 30
0.0
 40
30.00000000000001
100
AcDbArc
 50
151.1713890616
 51
171.6587041763
  0
LINE
  5
169
330
1F
100
AcDbEntity
  8
0
  6
Continuous
 62
     7
370
    25
100
AcDbLine
 10
797.307126682
 20
579.2899434973
 30
0.0
 11
791.3278744559
 21
568.4265774885
 31
0.0
  0
ARC
  5
16A
330
1F
100
AcDbEntity
  8
0
  6
Continuous
 62
     7
370
    25
100
AcDbCircle
 10
798.1831968485
 20
578.8077571202
 30
0.0
 40
1.000000000000087
100
AcDbArc
 50
20.4873151147
 51
151.1713890616
  0
LINE
  5
16B
330
1F
100
AcDbEntity
  8
0
  6
Continuous
 62
     7
370
    25
100
AcDbLine
 10
799.1199416618
 20
579.1577551753
 30
0.0
 11
803.4600133872
 21
567.5418940649
 31
0.0
  0
ARC
  5
16C
330
1F
100
AcDbEntity
  8
0
  6
Continuous
 62
     7
370
    25
100
AcDbCircle
 10
775.3575190017
 20
557.0418910339
 30
0.0
 40
30.00000000000006
100
AcDbArc
 50
0.0
 51
20.4873151147
  0
LINE
  5
16D
330
1F
100
AcDbEntity
  8
0
  6
Continuous
 62
     7
370
    25
100
AcDbLine
 10
805.357522459
 20
557.0418971105
 30
0.0
 11
805.357522459
 21
528.8169534529
 31
0.0
  0
ARC
  5
16E
330
1F
100
AcDbEntity
  8
0
  6
Continuous
 62
     7
370
    25
100
AcDbCircle
 10
810.3575190017
 20
528.8169595742
 30
0.0
 40
5.0
100
AcDbArc
 50
180.0
 51
0.0
  0
LINE
  5
16F
330
1F
100
AcDbEntity
  8
0
  6
Continuous
 62
     7
370
    25
100
AcDbLine
 10
815.3575155444
 20
557.0418971105
 30
0.0
 11
815.3575155444
 21
528.8169534529
 31
0.0
  0
ARC
  5
170
330
1F
100
AcDbEntity
  8
0
  6
Continuous
 62
     7
370
    25
100
AcDbCircle
 10
845.3575190017
 20
557.0418910339
 30
0.0
 40
29.99999999999994
100
AcDbArc
 50
159.5126848853
 51
180.0
  0
LINE
  5
171
330
1F
100
AcDbEntity
  8
0
  6
Continuous
 62
     7
370
    25
100
AcDbLine
 10
821.5950963417
 20
579.1577551753
 30
0.0
 11
817.2550246163
 21
567.5418940649
 31
0.0
  0
ARC
  5
172
330
1F
100
AcDbEntity
  8
0
  6
Continuous
 62
     7
370
    25
100
AcDbCircle
 10
822.531841155
 20
578.8077571202
 30
0.0
 40
1.000000000000087
100
AcDbArc
 50
28.8286109384
 51
159.5126848853
  0
LINE
  5
173
330
1F
100
AcDbEntity
  8
0
  6
Continuous
 62
     7
370
    25
100
AcDbLine
 10
823.4079113215
 20
579.2899434973
 30
0.0
 11
829.3871635475
 21
568.4265774885
 31
0.0
  0
ARC
  5
174
330
1F
100
AcDbEntity
  8
0
  6
Continuous
 62
     7
370
    25
100
AcDbCircle
 10
803.1051853366
 20
553.9608349895
 30
0.0
 40
30.00000000000005
100
AcDbArc
 50
8.3412958237
 51
28.8286109384
  0
LINE
  5
175
330
1F
100
AcDbEntity
  8
0
  6
Continuous
 62
     7
370
    25
100
AcDbLine
 10
832.7878294348
 20
558.3129196211
 30
0.0
 11
836.8823957677
 21
530.3865653117
 31
0.0
  0
ARC
  5
176
330
1F
100
AcDbEntity
  8
0
  6
Continuous
 62
     7
370
    25
100
AcDbCircle
 10
841.8295102096
 20
531.1119089965
 30
0.0
 40
4.999999999999958
100
AcDbArc
 50
188.3412958237
 51
8.3412958237
  0
LINE
  5
177
330
1F
100
AcDbEntity
  8
0
  6
Continuous
 62
     7
370
    25
100
AcDbLine
 10
842.6820497355
 20
559.7636088785
 30
0.0
 11
846.7766213367
 21
531.8372598375
 31
0.0
  0
ARC
  5
178
330
1F
100
AcDbEntity
  8
0
  6
Continuous
 62
     7
370
    25
100
AcDbCircle
 10
872.3646894688
 20
564.1156903483
 30
0.0
 40
30.00000000000005
100
AcDbArc
 50
167.853980709
 51
188.3412958237
  0
LINE
  5
179
330
1F
100
AcDbEntity
  8
0
  6
Continuous
 62
     7
370
    25
100
AcDbLine
 10
845.6452998239
 20
582.5503973563
 30
0.0
 11
843.0362571188
 21
570.4277994179
 31
0.0
  0
ARC
  5
17A
330
1F
100
AcDbEntity
  8
0
  6
Continuous
 62
     7
370
    25
100
AcDbCircle
 10
846.6229130258
 20
582.3399994219
 30
0.0
 40
1.000000000000065
100
AcDbArc
 50
37.1699067622
 51
167.853980709
  0
LINE
  5
17B
330
1F
100
AcDbEntity
  8
0
  6
Continuous
 62
     7
370
    25
100
AcDbLine
 10
847.4197559032
 20
582.9441858986
 30
0.0
 11
854.9117112059
 21
573.0631259514
 31
0.0
  0
ARC
  5
17C
330
1F
100
AcDbEntity
  8
0
  6
Continuous
 62
     7
370
    25
100
AcDbCircle
 10
831.0062894747
 20
554.9377081944
 30
0.0
 40
30.00000000000011
100
AcDbArc
 50
16.6825916474
 51
37.1699067622
  0
LINE
  5
17D
330
1F
100
AcDbEntity
  8
0
  6
Continuous
 62
     7
370
    25
100
AcDbLine
 10
859.7435839698
 20
563.5497919891
 30
0.0
 11
867.8460995935
 21
536.5128573555
 31
0.0
  0
ARC
  5
17E
330
1F
100
AcDbEntity
  8
0
  6
Continuous
 62
     7
370
    25
100
AcDbCircle
 10
872.6356477193
 20
537.9482029618
 30
0.0
 40
4.999999999999949
100
AcDbArc
 50
196.6825916474
 51
16.6825916474
  0
LINE
  5
17F
330
1F
100
AcDbEntity
  8
0
  6
Continuous
 62
     7
370
    25
100
AcDbLine
 10
869.3226828209
 20
566.4204823298
 30
0.0
 11
877.4251984445
 21
539.3835476962
 31
0.0
  0
ARC
  5
180
330
1F
100
AcDbEntity
  8
0
  6
Continuous
 62
     7
370
    25
100
AcDbCircle
 10
898.059972693
 20
575.0325723853
 30
0.0
 40
30.00000000000008
100
AcDbArc
 50
176.1952765327
 51
196.6825916474
  0
LINE
  5
181
330
1F
100
AcDbEntity
  8
0
  6
Continuous
 62
     7
370
    25
100
AcDbLine
 10
869.0087204096
 20
590.2953759956
 30
0.0
 11
868.1260916448
 21
577.0232596426
 31
0.0
  0
ARC
  5
182
330
1F
100
AcDbEntity
  8
0
  6
Continuous
 62
     7
370
    25
100
AcDbCircle
 10
871.0043167931
 20
590.1626634948
 30
0.0
 40
2.000000000000076
100
AcDbArc
 50
111.2940501661
 51
176.1952765327
  0
ARC
  5
183
330
1F
100
AcDbEntity
  8
0
  6
Continuous
 62
     7
370
    25
100
AcDbCircle
 10
878.5813363379
 20
593.8806520057
 30
0.0
 40
1.500000000000114
100
AcDbArc
 50
360.0
 51
114.189298029
  0
LINE
  5
184
330
1F
100
AcDbEntity
  8
0
  6
Continuous
 62
     7
370
    25
100
AcDbLine
 10
880.0813349845
 20
561.057564543
 30
0.0
 11
880.0813402529
 21
593.8806503478
 31
0.0
  0
ARC
  5
185
330
1F
100
AcDbEntity
  8
0
  6
Continuous
 62
     7
370
    25
100
AcDbCircle
 10
737.1337016656
 20
561.0575666998
 30
0.0
 40
3.5
100
AcDbArc
 50
270.0
 51
0.0
  0
ARC
  5
186
330
1F
100
AcDbEntity
  8
0
  6
Continuous
 62
     7
370
    25
100
AcDbCircle
 10
810.3575190017
 20
745.7613971582
 30
0.0
 40
164.9999999999999
100
AcDbArc
 50
291.2940501661
 51
294.189298029
  0
ARC
  5
187
330
1F
100
AcDbEntity
  8
0
  6
Continuous
 62
     7
370
    25
100
AcDbCircle
 10
883.0916331653
 20
495.1282869738
 30
0.0
 40
3.5
100
AcDbArc
 50
180.0
 51
270.0
  0
LINE
  5
188
330
1F
100
AcDbEntity
  8
0
  6
Continuous
 62
     7
370
    25
100
AcDbLine
 10
883.0916325528
 20
491.6282840761
 30
0.0
 11
883.5916258851
 21
491.6282893444
 31
0.0
  0
ARC
  5
189
330
1F
100
AcDbEntity
  8
0
  6
Continuous
 62
     7
370
    25
100
AcDbCircle
 10
883.5916331653
 20
488.1282869738
 30
0.0
 40
3.500000000000114
100
AcDbArc
 50
0.0
 51
90.0
  0
LINE
  5
18A
330
1F
100
AcDbEntity
  8
0
  6
Continuous
 62
     7
370
    25
100
AcDbLine
 10
887.091626626
 20
488.1282886035
 30
0.0
 11
887.0916318943
 21
472.7375292012
 31
0.0
  0
ARC
  5
18B
330
1F
100
AcDbEntity
  8
0
  6
Continuous
 62
     7
370
    25
100
AcDbCircle
 10
881.0916331653
 20
472.7375307235
 30
0.0
 40
6.000000000000081
100
AcDbArc
 50
288.9790804794
 51
0.0
  0
ARC
  5
18C
330
1F
100
AcDbEntity
  8
0
  6
Continuous
 62
     7
370
    25
100
AcDbCircle
 10
809.8678158291
 20
679.8321174322
 30
0.0
 40
225.0000000000002
100
AcDbArc
 50
251.0209195206
 51
288.9790804794
  0
ARC
  5
18D
330
1F
100
AcDbEntity
  8
0
  6
Continuous
 62
     7
370
    25
100
AcDbCircle
 10
738.643998493
 20
472.7375307235
 30
0.0
 40
6.000000000000027
100
AcDbArc
 50
180.0
 51
251.0209195206
  0
LINE
  5
18E
330
1F
100
AcDbEntity
  8
0
  6
Continuous
 62
     7
370
    25
100
AcDbLine
 10
732.6440050323
 20
488.1282886035
 30
0.0
 11
732.643999764
 21
472.7375292012
 31
0.0
  0
ARC
  5
18F
330
1F
100
AcDbEntity
  8
0
  6
Continuous
 62
     7
370
    25
100
AcDbCircle
 10
736.143998493
 20
488.1282869738
 30
0.0
 40
3.500000000000057
100
AcDbArc
 50
90.0
 51
180.0
  0
LINE
  5
190
330
1F
100
AcDbEntity
  8
0
  6
Continuous
 62
     7
370
    25
100
AcDbLine
 10
736.1440057732
 20
491.6282893444
 30
0.0
 11
736.6439991054
 21
491.6282840761
 31
0.0
  0
LINE
  5
191
330
1F
100
AcDbEntity
  8
0
  6
Continuous
 62
     7
370
    25
100
AcDbLine
 10
740.1439998463
 20
495.128284817
 30
0.0
 11
740.143994578
 21
527.9513706218
 31
0.0
  0
ARC
  5
192
330
1F
100
AcDbEntity
  8
0
  6
Continuous
 62
     7
370
    25
100
AcDbCircle
 10
741.643998493
 20
527.9513722797
 30
0.0
 40
1.500000000000004
100
AcDbArc
 50
65.810701971
 51
180.0
  0
ARC
  5
193
330
1F
100
AcDbEntity
  8
0
  6
Continuous
 62
     7
370
    25
100
AcDbCircle
 10
809.8678158291
 20
679.8321174322
 30
0.0
 40
165.0000000000002
100
AcDbArc
 50
245.810701971
 51
248.7059498339
  0
ARC
  5
194
330
1F
100
AcDbEntity
  8
0
  6
Continuous
 62
     7
370
    25
100
AcDbCircle
 10
749.2210180378
 20
524.2333837688
 30
0.0
 40
1.999999999999978
100
AcDbArc
 50
3.8047234673
 51
68.7059498339
  0
LINE
  5
195
330
1F
100
AcDbEntity
  8
0
  6
Continuous
 62
     7
370
    25
100
AcDbLine
 10
751.2166144212
 20
524.3660962696
 30
0.0
 11
752.099243186
 21
511.0939799166
 31
0.0
  0
ARC
  5
196
330
1F
100
AcDbEntity
  8
0
  6
Continuous
 62
     7
370
    25
100
AcDbCircle
 10
722.1653621378
 20
509.1032926593
 30
0.0
 40
30.00000000000001
100
AcDbArc
 50
343.3174083526
 51
3.8047234673
  0
LINE
  5
197
330
1F
100
AcDbEntity
  8
0
  6
Continuous
 62
     7
370
    25
100
AcDbLine
 10
750.90265201
 20
500.4912026038
 30
0.0
 11
742.8001363863
 21
473.4542679702
 31
0.0
  0
ARC
  5
198
330
1F
100
AcDbEntity
  8
0
  6
Continuous
 62
     7
370
    25
100
AcDbCircle
 10
747.5896871116
 20
472.0189232358
 30
0.0
 40
5.000000000000009
100
AcDbArc
 50
163.3174083526
 51
343.3174083526
  0
LINE
  5
199
330
1F
100
AcDbEntity
  8
0
  6
Continuous
 62
     7
370
    25
100
AcDbLine
 10
760.481750861
 20
497.6205122631
 30
0.0
 11
752.3792352374
 21
470.5835776295
 31
0.0
  0
ARC
  5
19A
330
1F
100
AcDbEntity
  8
0
  6
Continuous
 62
     7
370
    25
100
AcDbCircle
 10
789.2190453562
 20
489.0084284684
 30
0.0
 40
30.00000000000003
100
AcDbArc
 50
142.8300932378
 51
163.3174083526
  0
LINE
  5
19B
330
1F
100
AcDbEntity
  8
0
  6
Continuous
 62
     7
370
    25
100
AcDbLine
 10
772.8055789277
 20
517.0149061726
 30
0.0
 11
765.313623625
 21
507.1338462254
 31
0.0
  0
ARC
  5
19C
330
1F
100
AcDbEntity
  8
0
  6
Continuous
 62
     7
370
    25
100
AcDbCircle
 10
773.6024218051
 20
516.4107196959
 30
0.0
 40
1.000000000000004
100
AcDbArc
 50
12.146019291
 51
142.8300932378
  0
LINE
  5
19D
330
1F
100
AcDbEntity
  8
0
  6
Continuous
 62
     7
370
    25
100
AcDbLine
 10
774.580035007
 20
516.6211176303
 30
0.0
 11
777.1890777121
 21
504.4985196919
 31
0.0
  0
ARC
  5
19E
330
1F
100
AcDbEntity
  8
0
  6
Continuous
 62
     7
370
    25
100
AcDbCircle
 10
747.860645362
 20
498.1864106223
 30
0.0
 40
30.0
100
AcDbArc
 50
351.6587041763
 51
12.146019291
  0
LINE
  5
19F
330
1F
100
AcDbEntity
  8
0
  6
Continuous
 62
     7
370
    25
100
AcDbLine
 10
777.5432850954
 20
493.8343291525
 30
0.0
 11
773.4487134942
 21
465.9079801115
 31
0.0
  0
ARC
  5
1A0
330
1F
100
AcDbEntity
  8
0
  6
Continuous
 62
     7
370
    25
100
AcDbCircle
 10
778.3958246212
 20
465.1826292705
 30
0.0
 40
5.000000000000054
100
AcDbArc
 50
171.6587041763
 51
351.6587041763
  0
LINE
  5
1A1
330
1F
100
AcDbEntity
  8
0
  6
Continuous
 62
     7
370
    25
100
AcDbLine
 10
787.437505396
 20
492.3836398951
 30
0.0
 11
783.3429390632
 21
464.4572855857
 31
0.0
  0
ARC
  5
1A2
330
1F
100
AcDbEntity
  8
0
  6
Continuous
 62
     7
370
    25
100
AcDbCircle
 10
817.1201494943
 20
488.0315552635
 30
0.0
 40
30.00000000000011
100
AcDbArc
 50
151.1713890616
 51
171.6587041763
  0
LINE
  5
1A3
330
1F
100
AcDbEntity
  8
0
  6
Continuous
 62
     7
370
    25
100
AcDbLine
 10
796.8174235094
 20
513.3606637713
 30
0.0
 11
790.8381712833
 21
502.4972977625
 31
0.0
  0
ARC
  5
1A4
330
1F
100
AcDbEntity
  8
0
  6
Continuous
 62
     7
370
    25
100
AcDbCircle
 10
797.6934936759
 20
512.8784773942
 30
0.0
 40
1.000000000000132
100
AcDbArc
 50
20.4873151147
 51
151.1713890616
  0
LINE
  5
1A5
330
1F
100
AcDbEntity
  8
0
  6
Continuous
 62
     7
370
    25
100
AcDbLine
 10
798.6302384892
 20
513.2284754493
 30
0.0
 11
802.9703102146
 21
501.6126143389
 31
0.0
  0
ARC
  5
1A6
330
1F
100
AcDbEntity
  8
0
  6
Continuous
 62
     7
370
    25
100
AcDbCircle
 10
774.8678158291
 20
491.1126113079
 30
0.0
 40
30.00000000000006
100
AcDbArc
 50
0.0
 51
20.4873151147
  0
LINE
  5
1A7
330
1F
100
AcDbEntity
  8
0
  6
Continuous
 62
     7
370
    25
100
AcDbLine
 10
804.8678192865
 20
491.1126173845
 30
0.0
 11
804.8678192865
 21
462.8876737269
 31
0.0
  0
ARC
  5
1A8
330
1F
100
AcDbEntity
  8
0
  6
Continuous
 62
     7
370
    25
100
AcDbCircle
 10
809.8678158291
 20
462.8876798482
 30
0.0
 40
5.0
100
AcDbArc
 50
180.0
 51
0.0
  0
LINE
  5
1A9
330
1F
100
AcDbEntity
  8
0
  6
Continuous
 62
     7
370
    25
100
AcDbLine
 10
814.8678123718
 20
491.1126173845
 30
0.0
 11
814.8678123718
 21
462.8876737269
 31
0.0
  0
ARC
  5
1AA
330
1F
100
AcDbEntity
  8
0
  6
Continuous
 62
     7
370
    25
100
AcDbCircle
 10
844.8678158291
 20
491.1126113079
 30
0.0
 40
30.00000000000002
100
AcDbArc
 50
159.5126848853
 51
180.0
  0
LINE
  5
1AB
330
1F
100
AcDbEntity
  8
0
  6
Continuous
 62
     7
370
    25
100
AcDbLine
 10
821.1053931691
 20
513.2284754493
 30
0.0
 11
816.7653214437
 21
501.6126143389
 31
0.0
  0
ARC
  5
1AC
330
1F
100
AcDbEntity
  8
0
  6
Continuous
 62
     7
370
    25
100
AcDbCircle
 10
822.0421379824
 20
512.8784773942
 30
0.0
 40
1.000000000000087
100
AcDbArc
 50
28.8286109384
 51
159.5126848853
  0
LINE
  5
1AD
330
1F
100
AcDbEntity
  8
0
  6
Continuous
 62
     7
370
    25
100
AcDbLine
 10
822.9182081489
 20
513.3606637713
 30
0.0
 11
828.897460375
 21
502.4972977625
 31
0.0
  0
ARC
  5
1AE
330
1F
100
AcDbEntity
  8
0
  6
Continuous
 62
     7
370
    25
100
AcDbCircle
 10
802.615482164
 20
488.0315552635
 30
0.0
 40
30.00000000000004
100
AcDbArc
 50
8.3412958237
 51
28.8286109384
  0
LINE
  5
1AF
330
1F
100
AcDbEntity
  8
0
  6
Continuous
 62
     7
370
    25
100
AcDbLine
 10
832.2981262623
 20
492.3836398951
 30
0.0
 11
836.3926925951
 21
464.4572855857
 31
0.0
  0
ARC
  5
1B0
330
1F
100
AcDbEntity
  8
0
  6
Continuous
 62
     7
370
    25
100
AcDbCircle
 10
841.3398070371
 20
465.1826292705
 30
0.0
 40
4.999999999999942
100
AcDbArc
 50
188.3412958237
 51
8.3412958237
  0
LINE
  5
1B1
330
1F
100
AcDbEntity
  8
0
  6
Continuous
 62
     7
370
    25
100
AcDbLine
 10
842.1923465629
 20
493.8343291525
 30
0.0
 11
846.2869181641
 21
465.9079801115
 31
0.0
  0
ARC
  5
1B2
330
1F
100
AcDbEntity
  8
0
  6
Continuous
 62
     7
370
    25
100
AcDbCircle
 10
871.8749862963
 20
498.1864106223
 30
0.0
 40
30.00000000000015
100
AcDbArc
 50
167.853980709
 51
188.3412958237
  0
LINE
  5
1B3
330
1F
100
AcDbEntity
  8
0
  6
Continuous
 62
     7
370
    25
100
AcDbLine
 10
845.1555966513
 20
516.6211176303
 30
0.0
 11
842.5465539462
 21
504.4985196919
 31
0.0
  0
ARC
  5
1B4
330
1F
100
AcDbEntity
  8
0
  6
Continuous
 62
     7
370
    25
100
AcDbCircle
 10
846.1332098532
 20
516.4107196959
 30
0.0
 40
1.0000000000002
100
AcDbArc
 50
37.1699067622
 51
167.853980709
  0
LINE
  5
1B5
330
1F
100
AcDbEntity
  8
0
  6
Continuous
 62
     7
370
    25
100
AcDbLine
 10
846.9300527306
 20
517.0149061726
 30
0.0
 11
854.4220080333
 21
507.1338462254
 31
0.0
  0
ARC
  5
1B6
330
1F
100
AcDbEntity
  8
0
  6
Continuous
 62
     7
370
    25
100
AcDbCircle
 10
830.5165863021
 20
489.0084284684
 30
0.0
 40
30.00000000000011
100
AcDbArc
 50
16.6825916474
 51
37.1699067622
  0
LINE
  5
1B7
330
1F
100
AcDbEntity
  8
0
  6
Continuous
 62
     7
370
    25
100
AcDbLine
 10
859.2538807972
 20
497.6205122631
 30
0.0
 11
867.3563964209
 21
470.5835776295
 31
0.0
  0
ARC
  5
1B8
330
1F
100
AcDbEntity
  8
0
  6
Continuous
 62
     7
370
    25
100
AcDbCircle
 10
872.1459445467
 20
472.0189232358
 30
0.0
 40
5.000000000000042
100
AcDbArc
 50
196.6825916474
 51
16.6825916474
  0
LINE
  5
1B9
330
1F
100
AcDbEntity
  8
0
  6
Continuous
 62
     7
370
    25
100
AcDbLine
 10
868.8329796483
 20
500.4912026038
 30
0.0
 11
876.9354952719
 21
473.4542679702
 31
0.0
  0
ARC
  5
1BA
330
1F
100
AcDbEntity
  8
0
  6
Continuous
 62
     7
370
    25
100
AcDbCircle
 10
897.5702695204
 20
509.1032926593
 30
0.0
 40
30.00000000000011
100
AcDbArc
 50
176.1952765327
 51
196.6825916474
  0
LINE
  5
1BB
330
1F
100
AcDbEntity
  8
0
  6
Continuous
 62
     7
370
    25
100
AcDbLine
 10
868.519017237
 20
524.3660962696
 30
0.0
 11
867.6363884722
 21
511.0939799166
 31
0.0
  0
ARC
  5
1BC
330
1F
100
AcDbEntity
  8
0
  6
Continuous
 62
     7
370
    25
100
AcDbCircle
 10
870.5146136205
 20
524.2333837688
 30
0.0
 40
1.999999999999963
100
AcDbArc
 50
111.2940501661
 51
176.1952765327
  0
ARC
  5
1BD
330
1F
100
AcDbEntity
  8
0
  6
Continuous
 62
     7
370
    25
100
AcDbCircle
 10
878.0916331653
 20
527.9513722797
 30
0.0
 40
1.5
100
AcDbArc
 50
360.0
 51
114.189298029
  0
LINE
  5
1BE
330
1F
100
AcDbEntity
  8
0
  6
Continuous
 62
     7
370
    25
100
AcDbLine
 10
879.5916318119
 20
495.128284817
 30
0.0
 11
879.5916370803
 21
527.9513706218
 31
0.0
  0
ARC
  5
1BF
330
1F
100
AcDbEntity
  8
0
  6
Continuous
 62
     7
370
    25
100
AcDbCircle
 10
736.643998493
 20
495.1282869738
 30
0.0
 40
3.5
100
AcDbArc
 50
270.0
 51
0.0
  0
ARC
  5
1C0
330
1F
100
AcDbEntity
  8
0
  6
Continuous
 62
     7
370
    25
100
AcDbCircle
 10
809.8678158291
 20
679.8321174322
 30
0.0
 40
165.0000000000002
100
AcDbArc
 50
291.2940501661
 51
294.189298029
  0
ARC
  5
1C1
330
1F
100
AcDbEntity
  8
0
  6
Continuous
 62
     7
370
    25
100
AcDbCircle
 10
882.8553862652
 20
428.5956016231
 30
0.0
 40
3.5
100
AcDbArc
 50
180.0
 51
270.0
  0
LINE
  5
1C2
330
1F
100
AcDbEntity
  8
0
  6
Continuous
 62
     7
370
    25
100
AcDbLine
 10
882.8553856527
 20
425.0955987254
 30
0.0
 11
883.355378985
 21
425.0956039937
 31
0.0
  0
ARC
  5
1C3
330
1F
100
AcDbEntity
  8
0
  6
Continuous
 62
     7
370
    25
100
AcDbCircle
 10
883.3553862652
 20
421.5956016231
 30
0.0
 40
3.5
100
AcDbArc
 50
0.0
 51
90.0
  0
LINE
  5
1C4
330
1F
100
AcDbEntity
  8
0
  6
Continuous
 62
     7
370
    25
100
AcDbLine
 10
886.8553797259
 20
421.5956032528
 30
0.0
 11
886.8553849942
 21
406.2048438505
 31
0.0
  0
ARC
  5
1C5
330
1F
100
AcDbEntity
  8
0
  6
Continuous
 62
     7
370
    25
100
AcDbCircle
 10
880.8553862652
 20
406.2048453728
 30
0.0
 40
6.000000000000081
100
AcDbArc
 50
288.9790804794
 51
0.0
  0
ARC
  5
1C6
330
1F
100
AcDbEntity
  8
0
  6
Continuous
 62
     7
370
    25
100
AcDbCircle
 10
809.631568929
 20
613.2994320815
 30
0.0
 40
225.0000000000001
100
AcDbArc
 50
251.0209195206
 51
288.9790804794
  0
ARC
  5
1C7
330
1F
100
AcDbEntity
  8
0
  6
Continuous
 62
     7
370
    25
100
AcDbCircle
 10
738.4077515929
 20
406.2048453728
 30
0.0
 40
6.000000000000027
100
AcDbArc
 50
180.0
 51
251.0209195206
  0
LINE
  5
1C8
330
1F
100
AcDbEntity
  8
0
  6
Continuous
 62
     7
370
    25
100
AcDbLine
 10
732.4077581322
 20
421.5956032528
 30
0.0
 11
732.4077528639
 21
406.2048438505
 31
0.0
  0
ARC
  5
1C9
330
1F
100
AcDbEntity
  8
0
  6
Continuous
 62
     7
370
    25
100
AcDbCircle
 10
735.9077515929
 20
421.5956016231
 30
0.0
 40
3.500000000000114
100
AcDbArc
 50
90.0
 51
180.0
  0
LINE
  5
1CA
330
1F
100
AcDbEntity
  8
0
  6
Continuous
 62
     7
370
    25
100
AcDbLine
 10
735.9077588731
 20
425.0956039937
 30
0.0
 11
736.4077522053
 21
425.0955987254
 31
0.0
  0
LINE
  5
1CB
330
1F
100
AcDbEntity
  8
0
  6
Continuous
 62
     7
370
    25
100
AcDbLine
 10
739.9077529462
 20
428.5955994663
 30
0.0
 11
739.9077476779
 21
461.4186852711
 31
0.0
  0
ARC
  5
1CC
330
1F
100
AcDbEntity
  8
0
  6
Continuous
 62
     7
370
    25
100
AcDbCircle
 10
741.4077515929
 20
461.418686929
 30
0.0
 40
1.500000000000056
100
AcDbArc
 50
65.810701971
 51
180.0
  0
ARC
  5
1CD
330
1F
100
AcDbEntity
  8
0
  6
Continuous
 62
     7
370
    25
100
AcDbCircle
 10
809.631568929
 20
613.2994320815
 30
0.0
 40
165.0000000000002
100
AcDbArc
 50
245.810701971
 51
248.7059498339
  0
ARC
  5
1CE
330
1F
100
AcDbEntity
  8
0
  6
Continuous
 62
     7
370
    25
100
AcDbCircle
 10
748.9847711377
 20
457.7006984181
 30
0.0
 40
1.99999999999993
100
AcDbArc
 50
3.8047234673
 51
68.7059498339
  0
LINE
  5
1CF
330
1F
100
AcDbEntity
  8
0
  6
Continuous
 62
     7
370
    25
100
AcDbLine
 10
750.9803675211
 20
457.8334109189
 30
0.0
 11
751.8629962859
 21
444.5612945659
 31
0.0
  0
ARC
  5
1D0
330
1F
100
AcDbEntity
  8
0
  6
Continuous
 62
     7
370
    25
100
AcDbCircle
 10
721.9291152377
 20
442.5706073086
 30
0.0
 40
30.00000000000012
100
AcDbArc
 50
343.3174083526
 51
3.8047234673
  0
LINE
  5
1D1
330
1F
100
AcDbEntity
  8
0
  6
Continuous
 62
     7
370
    25
100
AcDbLine
 10
750.6664051099
 20
433.9585172531
 30
0.0
 11
742.5638894862
 21
406.9215826195
 31
0.0
  0
ARC
  5
1D2
330
1F
100
AcDbEntity
  8
0
  6
Continuous
 62
     7
370
    25
100
AcDbCircle
 10
747.3534402115
 20
405.4862378851
 30
0.0
 40
5.000000000000118
100
AcDbArc
 50
163.3174083526
 51
343.3174083526
  0
LINE
  5
1D3
330
1F
100
AcDbEntity
  8
0
  6
Continuous
 62
     7
370
    25
100
AcDbLine
 10
760.2455039609
 20
431.0878269124
 30
0.0
 11
752.1429883373
 21
404.0508922788
 31
0.0
  0
ARC
  5
1D4
330
1F
100
AcDbEntity
  8
0
  6
Continuous
 62
     7
370
    25
100
AcDbCircle
 10
788.9827984561
 20
422.4757431177
 30
0.0
 40
30.00000000000014
100
AcDbArc
 50
142.8300932378
 51
163.3174083526
  0
LINE
  5
1D5
330
1F
100
AcDbEntity
  8
0
  6
Continuous
 62
     7
370
    25
100
AcDbLine
 10
772.5693320276
 20
450.4822208219
 30
0.0
 11
765.0773767249
 21
440.6011608747
 31
0.0
  0
ARC
  5
1D6
330
1F
100
AcDbEntity
  8
0
  6
Continuous
 62
     7
370
    25
100
AcDbCircle
 10
773.366174905
 20
449.8780343452
 30
0.0
 40
1.000000000000101
100
AcDbArc
 50
12.146019291
 51
142.8300932378
  0
LINE
  5
1D7
330
1F
100
AcDbEntity
  8
0
  6
Continuous
 62
     7
370
    25
100
AcDbLine
 10
774.3437881069
 20
450.0884322796
 30
0.0
 11
776.952830812
 21
437.9658343412
 31
0.0
  0
ARC
  5
1D8
330
1F
100
AcDbEntity
  8
0
  6
Continuous
 62
     7
370
    25
100
AcDbCircle
 10
747.6243984619
 20
431.6537252716
 30
0.0
 40
30.00000000000011
100
AcDbArc
 50
351.6587041763
 51
12.146019291
  0
LINE
  5
1D9
330
1F
100
AcDbEntity
  8
0
  6
Continuous
 62
     7
370
    25
100
AcDbLine
 10
777.3070381953
 20
427.3016438018
 30
0.0
 11
773.2124665941
 21
399.3752947608
 31
0.0
  0
ARC
  5
1DA
330
1F
100
AcDbEntity
  8
0
  6
Continuous
 62
     7
370
    25
100
AcDbCircle
 10
778.1595777211
 20
398.6499439198
 30
0.0
 40
4.999999999999942
100
AcDbArc
 50
171.6587041763
 51
351.6587041763
  0
LINE
  5
1DB
330
1F
100
AcDbEntity
  8
0
  6
Continuous
 62
     7
370
    25
100
AcDbLine
 10
787.2012584959
 20
425.8509545444
 30
0.0
 11
783.1066921631
 21
397.924600235
 31
0.0
  0
ARC
  5
1DC
330
1F
100
AcDbEntity
  8
0
  6
Continuous
 62
     7
370
    25
100
AcDbCircle
 10
816.8839025942
 20
421.4988699128
 30
0.0
 40
30.0
100
AcDbArc
 50
151.1713890616
 51
171.6587041763
  0
LINE
  5
1DD
330
1F
100
AcDbEntity
  8
0
  6
Continuous
 62
     7
370
    25
100
AcDbLine
 10
796.5811766093
 20
446.8279784206
 30
0.0
 11
790.6019243832
 21
435.9646124118
 31
0.0
  0
ARC
  5
1DE
330
1F
100
AcDbEntity
  8
0
  6
Continuous
 62
     7
370
    25
100
AcDbCircle
 10
797.4572467758
 20
446.3457920435
 30
0.0
 40
1.00000000000006
100
AcDbArc
 50
20.4873151147
 51
151.1713890616
  0
LINE
  5
1DF
330
1F
100
AcDbEntity
  8
0
  6
Continuous
 62
     7
370
    25
100
AcDbLine
 10
798.3939915891
 20
446.6957900986
 30
0.0
 11
802.7340633145
 21
435.0799289881
 31
0.0
  0
ARC
  5
1E0
330
1F
100
AcDbEntity
  8
0
  6
Continuous
 62
     7
370
    25
100
AcDbCircle
 10
774.631568929
 20
424.5799259572
 30
0.0
 40
30.00000000000018
100
AcDbArc
 50
0.0
 51
20.4873151147
  0
LINE
  5
1E1
330
1F
100
AcDbEntity
  8
0
  6
Continuous
 62
     7
370
    25
100
AcDbLine
 10
804.6315723864
 20
424.5799320338
 30
0.0
 11
804.6315723864
 21
396.3549883762
 31
0.0
  0
ARC
  5
1E2
330
1F
100
AcDbEntity
  8
0
  6
Continuous
 62
     7
370
    25
100
AcDbCircle
 10
809.631568929
 20
396.3549944975
 30
0.0
 40
5.0
100
AcDbArc
 50
180.0
 51
0.0
  0
LINE
  5
1E3
330
1F
100
AcDbEntity
  8
0
  6
Continuous
 62
     7
370
    25
100
AcDbLine
 10
814.6315654717
 20
424.5799320338
 30
0.0
 11
814.6315654717
 21
396.3549883762
 31
0.0
  0
ARC
  5
1E4
330
1F
100
AcDbEntity
  8
0
  6
Continuous
 62
     7
370
    25
100
AcDbCircle
 10
844.631568929
 20
424.5799259572
 30
0.0
 40
29.99999999999996
100
AcDbArc
 50
159.5126848853
 51
180.0
  0
LINE
  5
1E5
330
1F
100
AcDbEntity
  8
0
  6
Continuous
 62
     7
370
    25
100
AcDbLine
 10
820.869146269
 20
446.6957900986
 30
0.0
 11
816.5290745436
 21
435.0799289881
 31
0.0
  0
ARC
  5
1E6
330
1F
100
AcDbEntity
  8
0
  6
Continuous
 62
     7
370
    25
100
AcDbCircle
 10
821.8058910823
 20
446.3457920435
 30
0.0
 40
1.000000000000187
100
AcDbArc
 50
28.8286109384
 51
159.5126848853
  0
LINE
  5
1E7
330
1F
100
AcDbEntity
  8
0
  6
Continuous
 62
     7
370
    25
100
AcDbLine
 10
822.6819612488
 20
446.8279784206
 30
0.0
 11
828.6612134748
 21
435.9646124118
 31
0.0
  0
ARC
  5
1E8
330
1F
100
AcDbEntity
  8
0
  6
Continuous
 62
     7
370
    25
100
AcDbCircle
 10
802.3792352639
 20
421.4988699128
 30
0.0
 40
30.00000000000015
100
AcDbArc
 50
8.3412958237
 51
28.8286109384
  0
LINE
  5
1E9
330
1F
100
AcDbEntity
  8
0
  6
Continuous
 62
     7
370
    25
100
AcDbLine
 10
832.0618793622
 20
425.8509545444
 30
0.0
 11
836.156445695
 21
397.924600235
 31
0.0
  0
ARC
  5
1EA
330
1F
100
AcDbEntity
  8
0
  6
Continuous
 62
     7
370
    25
100
AcDbCircle
 10
841.103560137
 20
398.6499439198
 30
0.0
 40
5.000000000000062
100
AcDbArc
 50
188.3412958237
 51
8.3412958237
  0
LINE
  5
1EB
330
1F
100
AcDbEntity
  8
0
  6
Continuous
 62
     7
370
    25
100
AcDbLine
 10
841.9560996628
 20
427.3016438018
 30
0.0
 11
846.050671264
 21
399.3752947608
 31
0.0
  0
ARC
  5
1EC
330
1F
100
AcDbEntity
  8
0
  6
Continuous
 62
     7
370
    25
100
AcDbCircle
 10
871.6387393962
 20
431.6537252716
 30
0.0
 40
30.00000000000005
100
AcDbArc
 50
167.853980709
 51
188.3412958237
  0
LINE
  5
1ED
330
1F
100
AcDbEntity
  8
0
  6
Continuous
 62
     7
370
    25
100
AcDbLine
 10
844.9193497512
 20
450.0884322796
 30
0.0
 11
842.3103070461
 21
437.9658343412
 31
0.0
  0
ARC
  5
1EE
330
1F
100
AcDbEntity
  8
0
  6
Continuous
 62
     7
370
    25
100
AcDbCircle
 10
845.8969629531
 20
449.8780343452
 30
0.0
 40
1.000000000000089
100
AcDbArc
 50
37.1699067622
 51
167.853980709
  0
LINE
  5
1EF
330
1F
100
AcDbEntity
  8
0
  6
Continuous
 62
     7
370
    25
100
AcDbLine
 10
846.6938058305
 20
450.4822208219
 30
0.0
 11
854.1857611332
 21
440.6011608747
 31
0.0
  0
ARC
  5
1F0
330
1F
100
AcDbEntity
  8
0
  6
Continuous
 62
     7
370
    25
100
AcDbCircle
 10
830.280339402
 20
422.4757431177
 30
0.0
 40
29.99999999999999
100
AcDbArc
 50
16.6825916474
 51
37.1699067622
  0
LINE
  5
1F1
330
1F
100
AcDbEntity
  8
0
  6
Continuous
 62
     7
370
    25
100
AcDbLine
 10
859.0176338971
 20
431.0878269124
 30
0.0
 11
867.1201495208
 21
404.0508922788
 31
0.0
  0
ARC
  5
1F2
330
1F
100
AcDbEntity
  8
0
  6
Continuous
 62
     7
370
    25
100
AcDbCircle
 10
871.9096976466
 20
405.4862378851
 30
0.0
 40
5.000000000000026
100
AcDbArc
 50
196.6825916474
 51
16.6825916474
  0
LINE
  5
1F3
330
1F
100
AcDbEntity
  8
0
  6
Continuous
 62
     7
370
    25
100
AcDbLine
 10
868.5967327482
 20
433.9585172531
 30
0.0
 11
876.6992483718
 21
406.9215826195
 31
0.0
  0
ARC
  5
1F4
330
1F
100
AcDbEntity
  8
0
  6
Continuous
 62
     7
370
    25
100
AcDbCircle
 10
897.3340226203
 20
442.5706073086
 30
0.0
 40
29.99999999999997
100
AcDbArc
 50
176.1952765327
 51
196.6825916474
  0
LINE
  5
1F5
330
1F
100
AcDbEntity
  8
0
  6
Continuous
 62
     7
370
    25
100
AcDbLine
 10
868.2827703369
 20
457.8334109189
 30
0.0
 11
867.4001415721
 21
444.5612945659
 31
0.0
  0
ARC
  5
1F6
330
1F
100
AcDbEntity
  8
0
  6
Continuous
 62
     7
370
    25
100
AcDbCircle
 10
870.2783667204
 20
457.7006984181
 30
0.0
 40
2.000000000000087
100
AcDbArc
 50
111.2940501661
 51
176.1952765327
  0
ARC
  5
1F7
330
1F
100
AcDbEntity
  8
0
  6
Continuous
 62
     7
370
    25
100
AcDbCircle
 10
877.8553862652
 20
461.418686929
 30
0.0
 40
1.5
100
AcDbArc
 50
0.0
 51
114.189298029
  0
LINE
  5
1F8
330
1F
100
AcDbEntity
  8
0
  6
Continuous
 62
     7
370
    25
100
AcDbLine
 10
879.3553849118
 20
428.5955994663
 30
0.0
 11
879.3553901802
 21
461.4186852711
 31
0.0
  0
ARC
  5
1F9
330
1F
100
AcDbEntity
  8
0
  6
Continuous
 62
     7
370
    25
100
AcDbCircle
 10
736.4077515929
 20
428.5956016231
 30
0.0
 40
3.500000000000114
100
AcDbArc
 50
270.0
 51
360.0
  0
ARC
  5
1FA
330
1F
100
AcDbEntity
  8
0
  6
Continuous
 62
     7
370
    25
100
AcDbCircle
 10
809.631568929
 20
613.2994320815
 30
0.0
 40
165.0000000000001
100
AcDbArc
 50
291.2940501661
 51
294.189298029
  0
ARC
  5
1FB
330
1F
100
AcDbEntity
  8
0
  6
Continuous
 62
     7
370
    25
100
AcDbCircle
 10
882.3656830926
 20
362.6663218971
 30
0.0
 40
3.499999999999943
100
AcDbArc
 50
180.0
 51
270.0
  0
LINE
  5
1FC
330
1F
100
AcDbEntity
  8
0
  6
Continuous
 62
     7
370
    25
100
AcDbLine
 10
882.3656824801
 20
359.1663189994
 30
0.0
 11
882.8656758124
 21
359.1663242677
 31
0.0
  0
ARC
  5
1FD
330
1F
100
AcDbEntity
  8
0
  6
Continuous
 62
     7
370
    25
100
AcDbCircle
 10
882.8656830926
 20
355.6663218971
 30
0.0
 40
3.5
100
AcDbArc
 50
0.0
 51
90.0
  0
LINE
  5
1FE
330
1F
100
AcDbEntity
  8
0
  6
Continuous
 62
     7
370
    25
100
AcDbLine
 10
886.3656765533
 20
355.6663235268
 30
0.0
 11
886.3656818216
 21
340.2755641245
 31
0.0
  0
ARC
  5
1FF
330
1F
100
AcDbEntity
  8
0
  6
Continuous
 62
     7
370
    25
100
AcDbCircle
 10
880.3656830926
 20
340.2755656468
 30
0.0
 40
6.000000000000027
100
AcDbArc
 50
288.9790804794
 51
0.0
  0
ARC
  5
200
330
1F
100
AcDbEntity
  8
0
  6
Continuous
 62
     7
370
    25
100
AcDbCircle
 10
809.1418657564
 20
547.3701523555
 30
0.0
 40
225.0000000000001
100
AcDbArc
 50
251.0209195206
 51
288.9790804794
  0
ARC
  5
201
330
1F
100
AcDbEntity
  8
0
  6
Continuous
 62
     7
370
    25
100
AcDbCircle
 10
737.9180484203
 20
340.2755656468
 30
0.0
 40
6.0
100
AcDbArc
 50
180.0
 51
251.0209195206
  0
LINE
  5
202
330
1F
100
AcDbEntity
  8
0
  6
Continuous
 62
     7
370
    25
100
AcDbLine
 10
731.9180549596
 20
355.6663235268
 30
0.0
 11
731.9180496913
 21
340.2755641245
 31
0.0
  0
ARC
  5
203
330
1F
100
AcDbEntity
  8
0
  6
Continuous
 62
     7
370
    25
100
AcDbCircle
 10
735.4180484203
 20
355.6663218971
 30
0.0
 40
3.500000000000114
100
AcDbArc
 50
90.0
 51
180.0
  0
LINE
  5
204
330
1F
100
AcDbEntity
  8
0
  6
Continuous
 62
     7
370
    25
100
AcDbLine
 10
735.4180557005
 20
359.1663242677
 30
0.0
 11
735.9180490328
 21
359.1663189994
 31
0.0
  0
LINE
  5
205
330
1F
100
AcDbEntity
  8
0
  6
Continuous
 62
     7
370
    25
100
AcDbLine
 10
739.4180497737
 20
362.6663197403
 30
0.0
 11
739.4180445053
 21
395.4894055451
 31
0.0
  0
ARC
  5
206
330
1F
100
AcDbEntity
  8
0
  6
Continuous
 62
     7
370
    25
100
AcDbCircle
 10
740.9180484203
 20
395.489407203
 30
0.0
 40
1.500000000000004
100
AcDbArc
 50
65.810701971
 51
180.0
  0
ARC
  5
207
330
1F
100
AcDbEntity
  8
0
  6
Continuous
 62
     7
370
    25
100
AcDbCircle
 10
809.1418657564
 20
547.3701523555
 30
0.0
 40
165.0000000000001
100
AcDbArc
 50
245.810701971
 51
248.7059498339
  0
ARC
  5
208
330
1F
100
AcDbEntity
  8
0
  6
Continuous
 62
     7
370
    25
100
AcDbCircle
 10
748.4950679651
 20
391.7714186921
 30
0.0
 40
1.99999999999997
100
AcDbArc
 50
3.8047234673
 51
68.7059498339
  0
LINE
  5
209
330
1F
100
AcDbEntity
  8
0
  6
Continuous
 62
     7
370
    25
100
AcDbLine
 10
750.4906643485
 20
391.9041311929
 30
0.0
 11
751.3732931133
 21
378.6320148399
 31
0.0
  0
ARC
  5
20A
330
1F
100
AcDbEntity
  8
0
  6
Continuous
 62
     7
370
    25
100
AcDbCircle
 10
721.4394120652
 20
376.6413275826
 30
0.0
 40
30.00000000000012
100
AcDbArc
 50
343.3174083526
 51
3.8047234673
  0
LINE
  5
20B
330
1F
100
AcDbEntity
  8
0
  6
Continuous
 62
     7
370
    25
100
AcDbLine
 10
750.1767019373
 20
368.0292375271
 30
0.0
 11
742.0741863137
 21
340.9923028935
 31
0.0
  0
ARC
  5
20C
330
1F
100
AcDbEntity
  8
0
  6
Continuous
 62
     7
370
    25
100
AcDbCircle
 10
746.8637370389
 20
339.5569581591
 30
0.0
 40
4.999999999999993
100
AcDbArc
 50
163.3174083526
 51
343.3174083526
  0
LINE
  5
20D
330
1F
100
AcDbEntity
  8
0
  6
Continuous
 62
     7
370
    25
100
AcDbLine
 10
759.7558007883
 20
365.1585471864
 30
0.0
 11
751.6532851647
 21
338.1216125528
 31
0.0
  0
ARC
  5
20E
330
1F
100
AcDbEntity
  8
0
  6
Continuous
 62
     7
370
    25
100
AcDbCircle
 10
788.4930952835
 20
356.5464633917
 30
0.0
 40
30.00000000000014
100
AcDbArc
 50
142.8300932378
 51
163.3174083526
  0
LINE
  5
20F
330
1F
100
AcDbEntity
  8
0
  6
Continuous
 62
     7
370
    25
100
AcDbLine
 10
772.079628855
 20
384.5529410959
 30
0.0
 11
764.5876735523
 21
374.6718811487
 31
0.0
  0
ARC
  5
210
330
1F
100
AcDbEntity
  8
0
  6
Continuous
 62
     7
370
    25
100
AcDbCircle
 10
772.8764717324
 20
383.9487546192
 30
0.0
 40
1.000000000000038
100
AcDbArc
 50
12.146019291
 51
142.8300932378
  0
LINE
  5
211
330
1F
100
AcDbEntity
  8
0
  6
Continuous
 62
     7
370
    25
100
AcDbLine
 10
773.8540849343
 20
384.1591525536
 30
0.0
 11
776.4631276394
 21
372.0365546152
 31
0.0
  0
ARC
  5
212
330
1F
100
AcDbEntity
  8
0
  6
Continuous
 62
     7
370
    25
100
AcDbCircle
 10
747.1346952893
 20
365.7244455456
 30
0.0
 40
30.00000000000001
100
AcDbArc
 50
351.6587041763
 51
12.146019291
  0
LINE
  5
213
330
1F
100
AcDbEntity
  8
0
  6
Continuous
 62
     7
370
    25
100
AcDbLine
 10
776.8173350227
 20
361.3723640758
 30
0.0
 11
772.7227634215
 21
333.4460150348
 31
0.0
  0
ARC
  5
214
330
1F
100
AcDbEntity
  8
0
  6
Continuous
 62
     7
370
    25
100
AcDbCircle
 10
777.6698745485
 20
332.7206641938
 30
0.0
 40
4.999999999999942
100
AcDbArc
 50
171.6587041763
 51
351.6587041763
  0
LINE
  5
215
330
1F
100
AcDbEntity
  8
0
  6
Continuous
 62
     7
370
    25
100
AcDbLine
 10
786.7115553233
 20
359.9216748184
 30
0.0
 11
782.6169889905
 21
331.995320509
 31
0.0
  0
ARC
  5
216
330
1F
100
AcDbEntity
  8
0
  6
Continuous
 62
     7
370
    25
100
AcDbCircle
 10
816.3941994216
 20
355.5695901868
 30
0.0
 40
30.00000000000001
100
AcDbArc
 50
151.1713890616
 51
171.6587041763
  0
LINE
  5
217
330
1F
100
AcDbEntity
  8
0
  6
Continuous
 62
     7
370
    25
100
AcDbLine
 10
796.0914734367
 20
380.8986986946
 30
0.0
 11
790.1122212106
 21
370.0353326858
 31
0.0
  0
ARC
  5
218
330
1F
100
AcDbEntity
  8
0
  6
Continuous
 62
     7
370
    25
100
AcDbCircle
 10
796.9675436032
 20
380.4165123175
 30
0.0
 40
1.000000000000032
100
AcDbArc
 50
20.4873151147
 51
151.1713890616
  0
LINE
  5
219
330
1F
100
AcDbEntity
  8
0
  6
Continuous
 62
     7
370
    25
100
AcDbLine
 10
797.9042884165
 20
380.7665103726
 30
0.0
 11
802.2443601419
 21
369.1506492621
 31
0.0
  0
ARC
  5
21A
330
1F
100
AcDbEntity
  8
0
  6
Continuous
 62
     7
370
    25
100
AcDbCircle
 10
774.1418657564
 20
358.6506462312
 30
0.0
 40
30.00000000000007
100
AcDbArc
 50
0.0
 51
20.4873151147
  0
LINE
  5
21B
330
1F
100
AcDbEntity
  8
0
  6
Continuous
 62
     7
370
    25
100
AcDbLine
 10
804.1418692138
 20
358.6506523078
 30
0.0
 11
804.1418692138
 21
330.4257086502
 31
0.0
  0
ARC
  5
21C
330
1F
100
AcDbEntity
  8
0
  6
Continuous
 62
     7
370
    25
100
AcDbCircle
 10
809.1418657564
 20
330.4257147715
 30
0.0
 40
5.0
100
AcDbArc
 50
180.0
 51
0.0
  0
LINE
  5
21D
330
1F
100
AcDbEntity
  8
0
  6
Continuous
 62
     7
370
    25
100
AcDbLine
 10
814.1418622991
 20
358.6506523078
 30
0.0
 11
814.1418622991
 21
330.4257086502
 31
0.0
  0
ARC
  5
21E
330
1F
100
AcDbEntity
  8
0
  6
Continuous
 62
     7
370
    25
100
AcDbCircle
 10
844.1418657564
 20
358.6506462312
 30
0.0
 40
29.99999999999998
100
AcDbArc
 50
159.5126848853
 51
180.0
  0
LINE
  5
21F
330
1F
100
AcDbEntity
  8
0
  6
Continuous
 62
     7
370
    25
100
AcDbLine
 10
820.3794430964
 20
380.7665103726
 30
0.0
 11
816.039371371
 21
369.1506492621
 31
0.0
  0
ARC
  5
220
330
1F
100
AcDbEntity
  8
0
  6
Continuous
 62
     7
370
    25
100
AcDbCircle
 10
821.3161879097
 20
380.4165123175
 30
0.0
 40
1.000000000000087
100
AcDbArc
 50
28.8286109384
 51
159.5126848853
  0
LINE
  5
221
330
1F
100
AcDbEntity
  8
0
  6
Continuous
 62
     7
370
    25
100
AcDbLine
 10
822.1922580762
 20
380.8986986946
 30
0.0
 11
828.1715103023
 21
370.0353326858
 31
0.0
  0
ARC
  5
222
330
1F
100
AcDbEntity
  8
0
  6
Continuous
 62
     7
370
    25
100
AcDbCircle
 10
801.8895320913
 20
355.5695901868
 30
0.0
 40
30.00000000000004
100
AcDbArc
 50
8.3412958237
 51
28.8286109384
  0
LINE
  5
223
330
1F
100
AcDbEntity
  8
0
  6
Continuous
 62
     7
370
    25
100
AcDbLine
 10
831.5721761896
 20
359.9216748184
 30
0.0
 11
835.6667425224
 21
331.995320509
 31
0.0
  0
ARC
  5
224
330
1F
100
AcDbEntity
  8
0
  6
Continuous
 62
     7
370
    25
100
AcDbCircle
 10
840.6138569644
 20
332.7206641938
 30
0.0
 40
4.999999999999958
100
AcDbArc
 50
188.3412958237
 51
8.3412958237
  0
LINE
  5
225
330
1F
100
AcDbEntity
  8
0
  6
Continuous
 62
     7
370
    25
100
AcDbLine
 10
841.4663964902
 20
361.3723640758
 30
0.0
 11
845.5609680914
 21
333.4460150348
 31
0.0
  0
ARC
  5
226
330
1F
100
AcDbEntity
  8
0
  6
Continuous
 62
     7
370
    25
100
AcDbCircle
 10
871.1490362236
 20
365.7244455456
 30
0.0
 40
30.00000000000004
100
AcDbArc
 50
167.853980709
 51
188.3412958237
  0
LINE
  5
227
330
1F
100
AcDbEntity
  8
0
  6
Continuous
 62
     7
370
    25
100
AcDbLine
 10
844.4296465786
 20
384.1591525536
 30
0.0
 11
841.8206038735
 21
372.0365546152
 31
0.0
  0
ARC
  5
228
330
1F
100
AcDbEntity
  8
0
  6
Continuous
 62
     7
370
    25
100
AcDbCircle
 10
845.4072597805
 20
383.9487546192
 30
0.0
 40
1.000000000000089
100
AcDbArc
 50
37.1699067622
 51
167.853980709
  0
LINE
  5
229
330
1F
100
AcDbEntity
  8
0
  6
Continuous
 62
     7
370
    25
100
AcDbLine
 10
846.2041026579
 20
384.5529410959
 30
0.0
 11
853.6960579606
 21
374.6718811487
 31
0.0
  0
ARC
  5
22A
330
1F
100
AcDbEntity
  8
0
  6
Continuous
 62
     7
370
    25
100
AcDbCircle
 10
829.7906362294
 20
356.5464633917
 30
0.0
 40
29.99999999999999
100
AcDbArc
 50
16.6825916474
 51
37.1699067622
  0
LINE
  5
22B
330
1F
100
AcDbEntity
  8
0
  6
Continuous
 62
     7
370
    25
100
AcDbLine
 10
858.5279307246
 20
365.1585471864
 30
0.0
 11
866.6304463482
 21
338.1216125528
 31
0.0
  0
ARC
  5
22C
330
1F
100
AcDbEntity
  8
0
  6
Continuous
 62
     7
370
    25
100
AcDbCircle
 10
871.419994474
 20
339.5569581591
 30
0.0
 40
4.999999999999933
100
AcDbArc
 50
196.6825916474
 51
16.6825916474
  0
LINE
  5
22D
330
1F
100
AcDbEntity
  8
0
  6
Continuous
 62
     7
370
    25
100
AcDbLine
 10
868.1070295756
 20
368.0292375271
 30
0.0
 11
876.2095451992
 21
340.9923028935
 31
0.0
  0
ARC
  5
22E
330
1F
100
AcDbEntity
  8
0
  6
Continuous
 62
     7
370
    25
100
AcDbCircle
 10
896.8443194477
 20
376.6413275826
 30
0.0
 40
29.99999999999997
100
AcDbArc
 50
176.1952765327
 51
196.6825916474
  0
LINE
  5
22F
330
1F
100
AcDbEntity
  8
0
  6
Continuous
 62
     7
370
    25
100
AcDbLine
 10
867.7930671644
 20
391.9041311929
 30
0.0
 11
866.9104383996
 21
378.6320148399
 31
0.0
  0
ARC
  5
230
330
1F
100
AcDbEntity
  8
0
  6
Continuous
 62
     7
370
    25
100
AcDbCircle
 10
869.7886635478
 20
391.7714186921
 30
0.0
 40
2.000000000000083
100
AcDbArc
 50
111.2940501661
 51
176.1952765327
  0
ARC
  5
231
330
1F
100
AcDbEntity
  8
0
  6
Continuous
 62
     7
370
    25
100
AcDbCircle
 10
877.3656830926
 20
395.489407203
 30
0.0
 40
1.500000000000114
100
AcDbArc
 50
0.0
 51
114.189298029
  0
LINE
  5
232
330
1F
100
AcDbEntity
  8
0
  6
Continuous
 62
     7
370
    25
100
AcDbLine
 10
878.8656817392
 20
362.6663197403
 30
0.0
 11
878.8656870076
 21
395.4894055451
 31
0.0
  0
ARC
  5
233
330
1F
100
AcDbEntity
  8
0
  6
Continuous
 62
     7
370
    25
100
AcDbCircle
 10
735.9180484203
 20
362.6663218971
 30
0.0
 40
3.500000000000114
100
AcDbArc
 50
270.0
 51
360.0
  0
ARC
  5
234
330
1F
100
AcDbEntity
  8
0
  6
Continuous
 62
     7
370
    25
100
AcDbCircle
 10
809.1418657564
 20
547.3701523555
 30
0.0
 40
165.0
100
AcDbArc
 50
291.2940501661
 51
294.189298029
  0
ARC
  5
235
330
1F
100
AcDbEntity
  8
0
  6
Continuous
 62
     7
370
    25
100
AcDbCircle
 10
881.7729556195
 20
296.374747001
 30
0.0
 40
3.499999999999943
100
AcDbArc
 50
180.0
 51
270.0
  0
LINE
  5
236
330
1F
100
AcDbEntity
  8
0
  6
Continuous
 62
     7
370
    25
100
AcDbLine
 10
881.772955007
 20
292.8747441033
 30
0.0
 11
882.2729483393
 21
292.8747493717
 31
0.0
  0
ARC
  5
237
330
1F
100
AcDbEntity
  8
0
  6
Continuous
 62
     7
370
    25
100
AcDbCircle
 10
882.2729556195
 20
289.374747001
 30
0.0
 40
3.500000000000114
100
AcDbArc
 50
0.0
 51
90.0
  0
LINE
  5
238
330
1F
100
AcDbEntity
  8
0
  6
Continuous
 62
     7
370
    25
100
AcDbLine
 10
885.7729490802
 20
289.3747486308
 30
0.0
 11
885.7729543485
 21
273.9839892284
 31
0.0
  0
ARC
  5
239
330
1F
100
AcDbEntity
  8
0
  6
Continuous
 62
     7
370
    25
100
AcDbCircle
 10
879.7729556195
 20
273.9839907507
 30
0.0
 40
6.000000000000044
100
AcDbArc
 50
288.9790804794
 51
0.0
  0
ARC
  5
23A
330
1F
100
AcDbEntity
  8
0
  6
Continuous
 62
     7
370
    25
100
AcDbCircle
 10
808.5491382833
 20
481.0785774594
 30
0.0
 40
225.0
100
AcDbArc
 50
251.0209195206
 51
288.9790804794
  0
ARC
  5
23B
330
1F
100
AcDbEntity
  8
0
  6
Continuous
 62
     7
370
    25
100
AcDbCircle
 10
737.3253209472
 20
273.9839907507
 30
0.0
 40
6.000000000000027
100
AcDbArc
 50
180.0
 51
251.0209195206
  0
LINE
  5
23C
330
1F
100
AcDbEntity
  8
0
  6
Continuous
 62
     7
370
    25
100
AcDbLine
 10
731.3253274865
 20
289.3747486308
 30
0.0
 11
731.3253222182
 21
273.9839892284
 31
0.0
  0
ARC
  5
23D
330
1F
100
AcDbEntity
  8
0
  6
Continuous
 62
     7
370
    25
100
AcDbCircle
 10
734.8253209472
 20
289.374747001
 30
0.0
 40
3.5
100
AcDbArc
 50
90.0
 51
180.0
  0
LINE
  5
23E
330
1F
100
AcDbEntity
  8
0
  6
Continuous
 62
     7
370
    25
100
AcDbLine
 10
734.8253282274
 20
292.8747493717
 30
0.0
 11
735.3253215597
 21
292.8747441033
 31
0.0
  0
LINE
  5
23F
330
1F
100
AcDbEntity
  8
0
  6
Continuous
 62
     7
370
    25
100
AcDbLine
 10
738.8253223005
 20
296.3747448442
 30
0.0
 11
738.8253170322
 21
329.197830649
 31
0.0
  0
ARC
  5
240
330
1F
100
AcDbEntity
  8
0
  6
Continuous
 62
     7
370
    25
100
AcDbCircle
 10
740.3253209472
 20
329.1978323069
 30
0.0
 40
1.50000000000001
100
AcDbArc
 50
65.810701971
 51
180.0
  0
ARC
  5
241
330
1F
100
AcDbEntity
  8
0
  6
Continuous
 62
     7
370
    25
100
AcDbCircle
 10
808.5491382833
 20
481.0785774594
 30
0.0
 40
165.0000000000001
100
AcDbArc
 50
245.810701971
 51
248.7059498339
  0
ARC
  5
242
330
1F
100
AcDbEntity
  8
0
  6
Continuous
 62
     7
370
    25
100
AcDbCircle
 10
747.902340492
 20
325.479843796
 30
0.0
 40
1.999999999999972
100
AcDbArc
 50
3.8047234673
 51
68.7059498339
  0
LINE
  5
243
330
1F
100
AcDbEntity
  8
0
  6
Continuous
 62
     7
370
    25
100
AcDbLine
 10
749.8979368754
 20
325.6125562969
 30
0.0
 11
750.7805656402
 21
312.3404399438
 31
0.0
  0
ARC
  5
244
330
1F
100
AcDbEntity
  8
0
  6
Continuous
 62
     7
370
    25
100
AcDbCircle
 10
720.8466845921
 20
310.3497526865
 30
0.0
 40
30.00000000000001
100
AcDbArc
 50
343.3174083526
 51
3.8047234673
  0
LINE
  5
245
330
1F
100
AcDbEntity
  8
0
  6
Continuous
 62
     7
370
    25
100
AcDbLine
 10
749.5839744642
 20
301.737662631
 30
0.0
 11
741.4814588405
 21
274.7007279975
 31
0.0
  0
ARC
  5
246
330
1F
100
AcDbEntity
  8
0
  6
Continuous
 62
     7
370
    25
100
AcDbCircle
 10
746.2710095658
 20
273.2653832631
 30
0.0
 40
5.000000000000009
100
AcDbArc
 50
163.3174083526
 51
343.3174083526
  0
LINE
  5
247
330
1F
100
AcDbEntity
  8
0
  6
Continuous
 62
     7
370
    25
100
AcDbLine
 10
759.1630733152
 20
298.8669722903
 30
0.0
 11
751.0605576916
 21
271.8300376568
 31
0.0
  0
ARC
  5
248
330
1F
100
AcDbEntity
  8
0
  6
Continuous
 62
     7
370
    25
100
AcDbCircle
 10
787.9003678104
 20
290.2548884956
 30
0.0
 40
30.00000000000003
100
AcDbArc
 50
142.8300932378
 51
163.3174083526
  0
LINE
  5
249
330
1F
100
AcDbEntity
  8
0
  6
Continuous
 62
     7
370
    25
100
AcDbLine
 10
771.4869013819
 20
318.2613661999
 30
0.0
 11
763.9949460792
 21
308.3803062527
 31
0.0
  0
ARC
  5
24A
330
1F
100
AcDbEntity
  8
0
  6
Continuous
 62
     7
370
    25
100
AcDbCircle
 10
772.2837442593
 20
317.6571797231
 30
0.0
 40
1.000000000000038
100
AcDbArc
 50
12.146019291
 51
142.8300932378
  0
LINE
  5
24B
330
1F
100
AcDbEntity
  8
0
  6
Continuous
 62
     7
370
    25
100
AcDbLine
 10
773.2613574612
 20
317.8675776575
 30
0.0
 11
775.8704001663
 21
305.7449797191
 31
0.0
  0
ARC
  5
24C
330
1F
100
AcDbEntity
  8
0
  6
Continuous
 62
     7
370
    25
100
AcDbCircle
 10
746.5419678162
 20
299.4328706495
 30
0.0
 40
30.0
100
AcDbArc
 50
351.6587041763
 51
12.146019291
  0
LINE
  5
24D
330
1F
100
AcDbEntity
  8
0
  6
Continuous
 62
     7
370
    25
100
AcDbLine
 10
776.2246075496
 20
295.0807891797
 30
0.0
 11
772.1300359484
 21
267.1544401387
 31
0.0
  0
ARC
  5
24E
330
1F
100
AcDbEntity
  8
0
  6
Continuous
 62
     7
370
    25
100
AcDbCircle
 10
777.0771470754
 20
266.4290892978
 30
0.0
 40
4.99999999999995
100
AcDbArc
 50
171.6587041763
 51
351.6587041763
  0
LINE
  5
24F
330
1F
100
AcDbEntity
  8
0
  6
Continuous
 62
     7
370
    25
100
AcDbLine
 10
786.1188278502
 20
293.6300999223
 30
0.0
 11
782.0242615174
 21
265.703745613
 31
0.0
  0
ARC
  5
250
330
1F
100
AcDbEntity
  8
0
  6
Continuous
 62
     7
370
    25
100
AcDbCircle
 10
815.8014719485
 20
289.2780152908
 30
0.0
 40
30.0
100
AcDbArc
 50
151.1713890616
 51
171.6587041763
  0
LINE
  5
251
330
1F
100
AcDbEntity
  8
0
  6
Continuous
 62
     7
370
    25
100
AcDbLine
 10
795.4987459636
 20
314.6071237985
 30
0.0
 11
789.5194937375
 21
303.7437577898
 31
0.0
  0
ARC
  5
252
330
1F
100
AcDbEntity
  8
0
  6
Continuous
 62
     7
370
    25
100
AcDbCircle
 10
796.3748161301
 20
314.1249374215
 30
0.0
 40
1.000000000000087
100
AcDbArc
 50
20.4873151147
 51
151.1713890616
  0
LINE
  5
253
330
1F
100
AcDbEntity
  8
0
  6
Continuous
 62
     7
370
    25
100
AcDbLine
 10
797.3115609434
 20
314.4749354765
 30
0.0
 11
801.6516326688
 21
302.8590743661
 31
0.0
  0
ARC
  5
254
330
1F
100
AcDbEntity
  8
0
  6
Continuous
 62
     7
370
    25
100
AcDbCircle
 10
773.5491382833
 20
292.3590713351
 30
0.0
 40
30.00000000000007
100
AcDbArc
 50
0.0
 51
20.4873151147
  0
LINE
  5
255
330
1F
100
AcDbEntity
  8
0
  6
Continuous
 62
     7
370
    25
100
AcDbLine
 10
803.5491417407
 20
292.3590774118
 30
0.0
 11
803.5491417407
 21
264.1341337542
 31
0.0
  0
ARC
  5
256
330
1F
100
AcDbEntity
  8
0
  6
Continuous
 62
     7
370
    25
100
AcDbCircle
 10
808.5491382833
 20
264.1341398754
 30
0.0
 40
5.0
100
AcDbArc
 50
180.0
 51
0.0
  0
LINE
  5
257
330
1F
100
AcDbEntity
  8
0
  6
Continuous
 62
     7
370
    25
100
AcDbLine
 10
813.549134826
 20
292.3590774118
 30
0.0
 11
813.549134826
 21
264.1341337542
 31
0.0
  0
ARC
  5
258
330
1F
100
AcDbEntity
  8
0
  6
Continuous
 62
     7
370
    25
100
AcDbCircle
 10
843.5491382833
 20
292.3590713351
 30
0.0
 40
29.99999999999996
100
AcDbArc
 50
159.5126848853
 51
180.0
  0
LINE
  5
259
330
1F
100
AcDbEntity
  8
0
  6
Continuous
 62
     7
370
    25
100
AcDbLine
 10
819.7867156233
 20
314.4749354765
 30
0.0
 11
815.4466438979
 21
302.8590743661
 31
0.0
  0
ARC
  5
25A
330
1F
100
AcDbEntity
  8
0
  6
Continuous
 62
     7
370
    25
100
AcDbCircle
 10
820.7234604366
 20
314.1249374215
 30
0.0
 40
1.000000000000087
100
AcDbArc
 50
28.8286109384
 51
159.5126848853
  0
LINE
  5
25B
330
1F
100
AcDbEntity
  8
0
  6
Continuous
 62
     7
370
    25
100
AcDbLine
 10
821.5995306031
 20
314.6071237985
 30
0.0
 11
827.5787828292
 21
303.7437577898
 31
0.0
  0
ARC
  5
25C
330
1F
100
AcDbEntity
  8
0
  6
Continuous
 62
     7
370
    25
100
AcDbCircle
 10
801.2968046182
 20
289.2780152908
 30
0.0
 40
30.00000000000004
100
AcDbArc
 50
8.3412958237
 51
28.8286109384
  0
LINE
  5
25D
330
1F
100
AcDbEntity
  8
0
  6
Continuous
 62
     7
370
    25
100
AcDbLine
 10
830.9794487165
 20
293.6300999223
 30
0.0
 11
835.0740150493
 21
265.703745613
 31
0.0
  0
ARC
  5
25E
330
1F
100
AcDbEntity
  8
0
  6
Continuous
 62
     7
370
    25
100
AcDbCircle
 10
840.0211294913
 20
266.4290892978
 30
0.0
 40
4.999999999999966
100
AcDbArc
 50
188.3412958237
 51
8.3412958237
  0
LINE
  5
25F
330
1F
100
AcDbEntity
  8
0
  6
Continuous
 62
     7
370
    25
100
AcDbLine
 10
840.8736690171
 20
295.0807891797
 30
0.0
 11
844.9682406183
 21
267.1544401387
 31
0.0
  0
ARC
  5
260
330
1F
100
AcDbEntity
  8
0
  6
Continuous
 62
     7
370
    25
100
AcDbCircle
 10
870.5563087505
 20
299.4328706495
 30
0.0
 40
30.00000000000004
100
AcDbArc
 50
167.853980709
 51
188.3412958237
  0
LINE
  5
261
330
1F
100
AcDbEntity
  8
0
  6
Continuous
 62
     7
370
    25
100
AcDbLine
 10
843.8369191055
 20
317.8675776575
 30
0.0
 11
841.2278764004
 21
305.7449797191
 31
0.0
  0
ARC
  5
262
330
1F
100
AcDbEntity
  8
0
  6
Continuous
 62
     7
370
    25
100
AcDbCircle
 10
844.8145323074
 20
317.6571797231
 30
0.0
 40
1.000000000000089
100
AcDbArc
 50
37.1699067622
 51
167.853980709
  0
LINE
  5
263
330
1F
100
AcDbEntity
  8
0
  6
Continuous
 62
     7
370
    25
100
AcDbLine
 10
845.6113751848
 20
318.2613661999
 30
0.0
 11
853.1033304875
 21
308.3803062527
 31
0.0
  0
ARC
  5
264
330
1F
100
AcDbEntity
  8
0
  6
Continuous
 62
     7
370
    25
100
AcDbCircle
 10
829.1979087563
 20
290.2548884956
 30
0.0
 40
30.0000000000001
100
AcDbArc
 50
16.6825916474
 51
37.1699067622
  0
LINE
  5
265
330
1F
100
AcDbEntity
  8
0
  6
Continuous
 62
     7
370
    25
100
AcDbLine
 10
857.9352032515
 20
298.8669722903
 30
0.0
 11
866.0377188751
 21
271.8300376568
 31
0.0
  0
ARC
  5
266
330
1F
100
AcDbEntity
  8
0
  6
Continuous
 62
     7
370
    25
100
AcDbCircle
 10
870.8272670009
 20
273.2653832631
 30
0.0
 40
4.999999999999933
100
AcDbArc
 50
196.6825916474
 51
16.6825916474
  0
LINE
  5
267
330
1F
100
AcDbEntity
  8
0
  6
Continuous
 62
     7
370
    25
100
AcDbLine
 10
867.5143021025
 20
301.737662631
 30
0.0
 11
875.6168177261
 21
274.7007279975
 31
0.0
  0
ARC
  5
268
330
1F
100
AcDbEntity
  8
0
  6
Continuous
 62
     7
370
    25
100
AcDbCircle
 10
896.2515919746
 20
310.3497526865
 30
0.0
 40
30.00000000000008
100
AcDbArc
 50
176.1952765327
 51
196.6825916474
  0
LINE
  5
269
330
1F
100
AcDbEntity
  8
0
  6
Continuous
 62
     7
370
    25
100
AcDbLine
 10
867.2003396912
 20
325.6125562969
 30
0.0
 11
866.3177109264
 21
312.3404399438
 31
0.0
  0
ARC
  5
26A
330
1F
100
AcDbEntity
  8
0
  6
Continuous
 62
     7
370
    25
100
AcDbCircle
 10
869.1959360747
 20
325.479843796
 30
0.0
 40
2.000000000000083
100
AcDbArc
 50
111.2940501661
 51
176.1952765327
  0
ARC
  5
26B
330
1F
100
AcDbEntity
  8
0
  6
Continuous
 62
     7
370
    25
100
AcDbCircle
 10
876.7729556195
 20
329.1978323069
 30
0.0
 40
1.500000000000114
100
AcDbArc
 50
0.0
 51
114.189298029
  0
LINE
  5
26C
330
1F
100
AcDbEntity
  8
0
  6
Continuous
 62
     7
370
    25
100
AcDbLine
 10
878.2729542661
 20
296.3747448442
 30
0.0
 11
878.2729595345
 21
329.197830649
 31
0.0
  0
ARC
  5
26D
330
1F
100
AcDbEntity
  8
0
  6
Continuous
 62
     7
370
    25
100
AcDbCircle
 10
735.3253209472
 20
296.374747001
 30
0.0
 40
3.500000000000057
100
AcDbArc
 50
270.0
 51
360.0
  0
ARC
  5
26E
330
1F
100
AcDbEntity
  8
0
  6
Continuous
 62
     7
370
    25
100
AcDbCircle
 10
808.5491382833
 20
481.0785774594
 30
0.0
 40
165.0000000000001
100
AcDbArc
 50
291.2940501661
 51
294.189298029
  0
ARC
  5
26F
330
1F
100
AcDbEntity
  8
0
  6
Continuous
 62
     7
370
    25
100
AcDbCircle
 10
881.2832524469
 20
230.445467275
 30
0.0
 40
3.5
100
AcDbArc
 50
180.0
 51
270.0
  0
LINE
  5
270
330
1F
100
AcDbEntity
  8
0
  6
Continuous
 62
     7
370
    25
100
AcDbLine
 10
881.2832518344
 20
226.9454643773
 30
0.0
 11
881.7832451667
 21
226.9454696457
 31
0.0
  0
ARC
  5
271
330
1F
100
AcDbEntity
  8
0
  6
Continuous
 62
     7
370
    25
100
AcDbCircle
 10
881.7832524469
 20
223.445467275
 30
0.0
 40
3.500000000000114
100
AcDbArc
 50
0.0
 51
90.0
  0
LINE
  5
272
330
1F
100
AcDbEntity
  8
0
  6
Continuous
 62
     7
370
    25
100
AcDbLine
 10
885.2832459076
 20
223.4454689048
 30
0.0
 11
885.2832511759
 21
208.0547095024
 31
0.0
  0
ARC
  5
273
330
1F
100
AcDbEntity
  8
0
  6
Continuous
 62
     7
370
    25
100
AcDbCircle
 10
879.2832524469
 20
208.0547110247
 30
0.0
 40
6.000000000000053
100
AcDbArc
 50
288.9790804794
 51
0.0
  0
ARC
  5
274
330
1F
100
AcDbEntity
  8
0
  6
Continuous
 62
     7
370
    25
100
AcDbCircle
 10
808.0594351108
 20
415.1492977334
 30
0.0
 40
225.0000000000001
100
AcDbArc
 50
251.0209195206
 51
288.9790804794
  0
ARC
  5
275
330
1F
100
AcDbEntity
  8
0
  6
Continuous
 62
     7
370
    25
100
AcDbCircle
 10
736.8356177746
 20
208.0547110247
 30
0.0
 40
6.000000000000053
100
AcDbArc
 50
180.0
 51
251.0209195206
  0
LINE
  5
276
330
1F
100
AcDbEntity
  8
0
  6
Continuous
 62
     7
370
    25
100
AcDbLine
 10
730.8356243139
 20
223.4454689048
 30
0.0
 11
730.8356190456
 21
208.0547095024
 31
0.0
  0
ARC
  5
277
330
1F
100
AcDbEntity
  8
0
  6
Continuous
 62
     7
370
    25
100
AcDbCircle
 10
734.3356177746
 20
223.445467275
 30
0.0
 40
3.5
100
AcDbArc
 50
90.0
 51
180.0
  0
LINE
  5
278
330
1F
100
AcDbEntity
  8
0
  6
Continuous
 62
     7
370
    25
100
AcDbLine
 10
734.3356250548
 20
226.9454696457
 30
0.0
 11
734.8356183871
 21
226.9454643773
 31
0.0
  0
LINE
  5
279
330
1F
100
AcDbEntity
  8
0
  6
Continuous
 62
     7
370
    25
100
AcDbLine
 10
738.335619128
 20
230.4454651182
 30
0.0
 11
738.3356138596
 21
263.268550923
 31
0.0
  0
ARC
  5
27A
330
1F
100
AcDbEntity
  8
0
  6
Continuous
 62
     7
370
    25
100
AcDbCircle
 10
739.8356177746
 20
263.2685525809
 30
0.0
 40
1.500000000000004
100
AcDbArc
 50
65.810701971
 51
180.0
  0
ARC
  5
27B
330
1F
100
AcDbEntity
  8
0
  6
Continuous
 62
     7
370
    25
100
AcDbCircle
 10
808.0594351108
 20
415.1492977334
 30
0.0
 40
165.0000000000001
100
AcDbArc
 50
245.810701971
 51
248.7059498339
  0
ARC
  5
27C
330
1F
100
AcDbEntity
  8
0
  6
Continuous
 62
     7
370
    25
100
AcDbCircle
 10
747.4126373194
 20
259.55056407
 30
0.0
 40
1.999999999999974
100
AcDbArc
 50
3.8047234673
 51
68.7059498339
  0
LINE
  5
27D
330
1F
100
AcDbEntity
  8
0
  6
Continuous
 62
     7
370
    25
100
AcDbLine
 10
749.4082337029
 20
259.6832765709
 30
0.0
 11
750.2908624677
 21
246.4111602178
 31
0.0
  0
ARC
  5
27E
330
1F
100
AcDbEntity
  8
0
  6
Continuous
 62
     7
370
    25
100
AcDbCircle
 10
720.3569814195
 20
244.4204729605
 30
0.0
 40
30.00000000000001
100
AcDbArc
 50
343.3174083526
 51
3.8047234673
  0
LINE
  5
27F
330
1F
100
AcDbEntity
  8
0
  6
Continuous
 62
     7
370
    25
100
AcDbLine
 10
749.0942712916
 20
235.808382905
 30
0.0
 11
740.991755668
 21
208.7714482715
 31
0.0
  0
ARC
  5
280
330
1F
100
AcDbEntity
  8
0
  6
Continuous
 62
     7
370
    25
100
AcDbCircle
 10
745.7813063932
 20
207.3361035371
 30
0.0
 40
5.000000000000018
100
AcDbArc
 50
163.3174083526
 51
343.3174083526
  0
LINE
  5
281
330
1F
100
AcDbEntity
  8
0
  6
Continuous
 62
     7
370
    25
100
AcDbLine
 10
758.6733701426
 20
232.9376925643
 30
0.0
 11
750.570854519
 21
205.9007579308
 31
0.0
  0
ARC
  5
282
330
1F
100
AcDbEntity
  8
0
  6
Continuous
 62
     7
370
    25
100
AcDbCircle
 10
787.4106646378
 20
224.3256087696
 30
0.0
 40
30.00000000000003
100
AcDbArc
 50
142.8300932378
 51
163.3174083526
  0
LINE
  5
283
330
1F
100
AcDbEntity
  8
0
  6
Continuous
 62
     7
370
    25
100
AcDbLine
 10
770.9971982093
 20
252.3320864739
 30
0.0
 11
763.5052429066
 21
242.4510265267
 31
0.0
  0
ARC
  5
284
330
1F
100
AcDbEntity
  8
0
  6
Continuous
 62
     7
370
    25
100
AcDbCircle
 10
771.7940410867
 20
251.7278999971
 30
0.0
 40
1.000000000000038
100
AcDbArc
 50
12.146019291
 51
142.8300932378
  0
LINE
  5
285
330
1F
100
AcDbEntity
  8
0
  6
Continuous
 62
     7
370
    25
100
AcDbLine
 10
772.7716542886
 20
251.9382979315
 30
0.0
 11
775.3806969937
 21
239.8156999931
 31
0.0
  0
ARC
  5
286
330
1F
100
AcDbEntity
  8
0
  6
Continuous
 62
     7
370
    25
100
AcDbCircle
 10
746.0522646436
 20
233.5035909235
 30
0.0
 40
30.0
100
AcDbArc
 50
351.6587041763
 51
12.146019291
  0
LINE
  5
287
330
1F
100
AcDbEntity
  8
0
  6
Continuous
 62
     7
370
    25
100
AcDbLine
 10
775.734904377
 20
229.1515094537
 30
0.0
 11
771.6403327758
 21
201.2251604127
 31
0.0
  0
ARC
  5
288
330
1F
100
AcDbEntity
  8
0
  6
Continuous
 62
     7
370
    25
100
AcDbCircle
 10
776.5874439028
 20
200.4998095718
 30
0.0
 40
5.000000000000054
100
AcDbArc
 50
171.6587041763
 51
351.6587041763
  0
LINE
  5
289
330
1F
100
AcDbEntity
  8
0
  6
Continuous
 62
     7
370
    25
100
AcDbLine
 10
785.6291246776
 20
227.7008201963
 30
0.0
 11
781.5345583448
 21
199.774465887
 31
0.0
  0
ARC
  5
28A
330
1F
100
AcDbEntity
  8
0
  6
Continuous
 62
     7
370
    25
100
AcDbCircle
 10
815.3117687759
 20
223.3487355648
 30
0.0
 40
30.00000000000011
100
AcDbArc
 50
151.1713890616
 51
171.6587041763
  0
LINE
  5
28B
330
1F
100
AcDbEntity
  8
0
  6
Continuous
 62
     7
370
    25
100
AcDbLine
 10
795.009042791
 20
248.6778440725
 30
0.0
 11
789.0297905649
 21
237.8144780638
 31
0.0
  0
ARC
  5
28C
330
1F
100
AcDbEntity
  8
0
  6
Continuous
 62
     7
370
    25
100
AcDbCircle
 10
795.8851129575
 20
248.1956576955
 30
0.0
 40
1.000000000000132
100
AcDbArc
 50
20.4873151147
 51
151.1713890616
  0
LINE
  5
28D
330
1F
100
AcDbEntity
  8
0
  6
Continuous
 62
     7
370
    25
100
AcDbLine
 10
796.8218577708
 20
248.5456557505
 30
0.0
 11
801.1619294962
 21
236.9297946401
 31
0.0
  0
ARC
  5
28E
330
1F
100
AcDbEntity
  8
0
  6
Continuous
 62
     7
370
    25
100
AcDbCircle
 10
773.0594351108
 20
226.4297916091
 30
0.0
 40
30.00000000000007
100
AcDbArc
 50
0.0
 51
20.4873151147
  0
LINE
  5
28F
330
1F
100
AcDbEntity
  8
0
  6
Continuous
 62
     7
370
    25
100
AcDbLine
 10
803.0594385681
 20
226.4297976858
 30
0.0
 11
803.0594385681
 21
198.2048540281
 31
0.0
  0
ARC
  5
290
330
1F
100
AcDbEntity
  8
0
  6
Continuous
 62
     7
370
    25
100
AcDbCircle
 10
808.0594351108
 20
198.2048601494
 30
0.0
 40
5.0
100
AcDbArc
 50
180.0
 51
0.0
  0
LINE
  5
291
330
1F
100
AcDbEntity
  8
0
  6
Continuous
 62
     7
370
    25
100
AcDbLine
 10
813.0594316534
 20
226.4297976858
 30
0.0
 11
813.0594316534
 21
198.2048540281
 31
0.0
  0
ARC
  5
292
330
1F
100
AcDbEntity
  8
0
  6
Continuous
 62
     7
370
    25
100
AcDbCircle
 10
843.0594351108
 20
226.4297916091
 30
0.0
 40
30.00000000000006
100
AcDbArc
 50
159.5126848853
 51
180.0
  0
LINE
  5
293
330
1F
100
AcDbEntity
  8
0
  6
Continuous
 62
     7
370
    25
100
AcDbLine
 10
819.2970124507
 20
248.5456557505
 30
0.0
 11
814.9569407253
 21
236.9297946401
 31
0.0
  0
ARC
  5
294
330
1F
100
AcDbEntity
  8
0
  6
Continuous
 62
     7
370
    25
100
AcDbCircle
 10
820.233757264
 20
248.1956576955
 30
0.0
 40
1.000000000000073
100
AcDbArc
 50
28.8286109384
 51
159.5126848853
  0
LINE
  5
295
330
1F
100
AcDbEntity
  8
0
  6
Continuous
 62
     7
370
    25
100
AcDbLine
 10
821.1098274305
 20
248.6778440725
 30
0.0
 11
827.0890796566
 21
237.8144780638
 31
0.0
  0
ARC
  5
296
330
1F
100
AcDbEntity
  8
0
  6
Continuous
 62
     7
370
    25
100
AcDbCircle
 10
800.8071014456
 20
223.3487355648
 30
0.0
 40
30.00000000000004
100
AcDbArc
 50
8.3412958237
 51
28.8286109384
  0
LINE
  5
297
330
1F
100
AcDbEntity
  8
0
  6
Continuous
 62
     7
370
    25
100
AcDbLine
 10
830.4897455439
 20
227.7008201963
 30
0.0
 11
834.5843118767
 21
199.774465887
 31
0.0
  0
ARC
  5
298
330
1F
100
AcDbEntity
  8
0
  6
Continuous
 62
     7
370
    25
100
AcDbCircle
 10
839.5314263187
 20
200.4998095718
 30
0.0
 40
4.999999999999942
100
AcDbArc
 50
188.3412958237
 51
8.3412958237
  0
LINE
  5
299
330
1F
100
AcDbEntity
  8
0
  6
Continuous
 62
     7
370
    25
100
AcDbLine
 10
840.3839658445
 20
229.1515094537
 30
0.0
 11
844.4785374457
 21
201.2251604127
 31
0.0
  0
ARC
  5
29A
330
1F
100
AcDbEntity
  8
0
  6
Continuous
 62
     7
370
    25
100
AcDbCircle
 10
870.0666055779
 20
233.5035909235
 30
0.0
 40
30.00000000000016
100
AcDbArc
 50
167.853980709
 51
188.3412958237
  0
LINE
  5
29B
330
1F
100
AcDbEntity
  8
0
  6
Continuous
 62
     7
370
    25
100
AcDbLine
 10
843.3472159329
 20
251.9382979315
 30
0.0
 11
840.7381732278
 21
239.8156999931
 31
0.0
  0
ARC
  5
29C
330
1F
100
AcDbEntity
  8
0
  6
Continuous
 62
     7
370
    25
100
AcDbCircle
 10
844.3248291348
 20
251.7278999971
 30
0.0
 40
1.0000000000002
100
AcDbArc
 50
37.1699067622
 51
167.853980709
  0
LINE
  5
29D
330
1F
100
AcDbEntity
  8
0
  6
Continuous
 62
     7
370
    25
100
AcDbLine
 10
845.1216720122
 20
252.3320864739
 30
0.0
 11
852.6136273149
 21
242.4510265267
 31
0.0
  0
ARC
  5
29E
330
1F
100
AcDbEntity
  8
0
  6
Continuous
 62
     7
370
    25
100
AcDbCircle
 10
828.7082055837
 20
224.3256087696
 30
0.0
 40
30.0000000000001
100
AcDbArc
 50
16.6825916474
 51
37.1699067622
  0
LINE
  5
29F
330
1F
100
AcDbEntity
  8
0
  6
Continuous
 62
     7
370
    25
100
AcDbLine
 10
857.4455000789
 20
232.9376925643
 30
0.0
 11
865.5480157025
 21
205.9007579308
 31
0.0
  0
ARC
  5
2A0
330
1F
100
AcDbEntity
  8
0
  6
Continuous
 62
     7
370
    25
100
AcDbCircle
 10
870.3375638283
 20
207.3361035371
 30
0.0
 40
5.000000000000042
100
AcDbArc
 50
196.6825916474
 51
16.6825916474
  0
LINE
  5
2A1
330
1F
100
AcDbEntity
  8
0
  6
Continuous
 62
     7
370
    25
100
AcDbLine
 10
867.0245989299
 20
235.808382905
 30
0.0
 11
875.1271145536
 21
208.7714482715
 31
0.0
  0
ARC
  5
2A2
330
1F
100
AcDbEntity
  8
0
  6
Continuous
 62
     7
370
    25
100
AcDbCircle
 10
895.761888802
 20
244.4204729605
 30
0.0
 40
30.00000000000008
100
AcDbArc
 50
176.1952765327
 51
196.6825916474
  0
LINE
  5
2A3
330
1F
100
AcDbEntity
  8
0
  6
Continuous
 62
     7
370
    25
100
AcDbLine
 10
866.7106365187
 20
259.6832765709
 30
0.0
 11
865.8280077539
 21
246.4111602178
 31
0.0
  0
ARC
  5
2A4
330
1F
100
AcDbEntity
  8
0
  6
Continuous
 62
     7
370
    25
100
AcDbCircle
 10
868.7062329021
 20
259.55056407
 30
0.0
 40
1.999999999999972
100
AcDbArc
 50
111.2940501661
 51
176.1952765327
  0
ARC
  5
2A5
330
1F
100
AcDbEntity
  8
0
  6
Continuous
 62
     7
370
    25
100
AcDbCircle
 10
876.2832524469
 20
263.2685525809
 30
0.0
 40
1.5
100
AcDbArc
 50
360.0
 51
114.189298029
  0
LINE
  5
2A6
330
1F
100
AcDbEntity
  8
0
  6
Continuous
 62
     7
370
    25
100
AcDbLine
 10
877.7832510936
 20
230.4454651182
 30
0.0
 11
877.7832563619
 21
263.268550923
 31
0.0
  0
ARC
  5
2A7
330
1F
100
AcDbEntity
  8
0
  6
Continuous
 62
     7
370
    25
100
AcDbCircle
 10
734.8356177746
 20
230.445467275
 30
0.0
 40
3.5
100
AcDbArc
 50
270.0
 51
0.0
  0
ARC
  5
2A8
330
1F
100
AcDbEntity
  8
0
  6
Continuous
 62
     7
370
    25
100
AcDbCircle
 10
808.0594351108
 20
415.1492977334
 30
0.0
 40
165.0000000000001
100
AcDbArc
 50
291.2940501661
 51
294.189298029
  0
ARC
  5
2A9
330
1F
100
AcDbEntity
  8
0
  6
Continuous
 62
     7
370
    25
100
AcDbCircle
 10
447.1579151956
 20
307.7968897006
 30
0.0
 40
5.0
100
AcDbArc
 50
0.0
 51
90.0
  0
ARC
  5
2AA
330
1F
100
AcDbEntity
  8
0
  6
Continuous
 62
     7
370
    25
100
AcDbCircle
 10
447.1579151956
 20
251.7968897006
 30
0.0
 40
5.000000000000028
100
AcDbArc
 50
270.0
 51
0.0
  0
ARC
  5
2AB
330
1F
100
AcDbEntity
  8
0
  6
Continuous
 62
     7
370
    25
100
AcDbCircle
 10
335.1579151956
 20
251.7968897006
 30
0.0
 40
5.0
100
AcDbArc
 50
180.0
 51
270.0
  0
ARC
  5
2AC
330
1F
100
AcDbEntity
  8
0
  6
Continuous
 62
     7
370
    25
100
AcDbCircle
 10
335.1579151956
 20
307.7968897006
 30
0.0
 40
5.0
100
AcDbArc
 50
90.0
 51
180.0
  0
CIRCLE
  5
2AD
330
1F
100
AcDbEntity
  8
0
  6
Continuous
 62
     7
370
    25
100
AcDbCircle
 10
444.1579151956
 20
254.7968897006
 30
0.0
 40
2.250000000000057
  0
CIRCLE
  5
2AE
330
1F
100
AcDbEntity
  8
0
  6
Continuous
 62
     7
370
    25
100
AcDbCircle
 10
338.1579151956
 20
254.7968897006
 30
0.0
 40
2.25
  0
CIRCLE
  5
2AF
330
1F
100
AcDbEntity
  8
0
  6
Continuous
 62
     7
370
    25
100
AcDbCircle
 10
375.1579151956
 20
303.7968897006
 30
0.0
 40
1.75
  0
CIRCLE
  5
2B0
330
1F
100
AcDbEntity
  8
0
  6
Continuous
 62
     7
370
    25
100
AcDbCircle
 10
433.1579151956
 20
303.7968897006
 30
0.0
 40
1.75
  0
LINE
  5
2B1
330
1F
100
AcDbEntity
  8
0
  6
Continuous
 62
     7
370
    25
100
AcDbLine
 10
446.1579151956
 20
266.7968897006
 30
0.0
 11
446.1579151956
 21
302.7968897006
 31
0.0
  0
ARC
  5
2B2
330
1F
100
AcDbEntity
  8
0
  6
Continuous
 62
     7
370
    25
100
AcDbCircle
 10
444.1579151956
 20
302.7968897006
 30
0.0
 40
2.0
100
AcDbArc
 50
0.0
 51
180.0
  0
LINE
  5
2B3
330
1F
100
AcDbEntity
  8
0
  6
Continuous
 62
     7
370
    25
100
AcDbLine
 10
442.1579151956
 20
302.7968897006
 30
0.0
 11
442.1579151956
 21
266.7968897006
 31
0.0
  0
ARC
  5
2B4
330
1F
100
AcDbEntity
  8
0
  6
Continuous
 62
     7
370
    25
100
AcDbCircle
 10
444.1579151956
 20
266.7968897006
 30
0.0
 40
2.0
100
AcDbArc
 50
180.0
 51
0.0
  0
LINE
  5
2B5
330
1F
100
AcDbEntity
  8
0
  6
Continuous
 62
     7
370
    25
100
AcDbLine
 10
348.1579151956
 20
252.7968897006
 30
0.0
 11
434.1579151956
 21
252.7968897006
 31
0.0
  0
ARC
  5
2B6
330
1F
100
AcDbEntity
  8
0
  6
Continuous
 62
     7
370
    25
100
AcDbCircle
 10
434.1579151956
 20
254.7968897006
 30
0.0
 40
2.0
100
AcDbArc
 50
270.0
 51
90.0
  0
LINE
  5
2B7
330
1F
100
AcDbEntity
  8
0
  6
Continuous
 62
     7
370
    25
100
AcDbLine
 10
434.1579151956
 20
256.7968897006
 30
0.0
 11
348.1579151956
 21
256.7968897006
 31
0.0
  0
ARC
  5
2B8
330
1F
100
AcDbEntity
  8
0
  6
Continuous
 62
     7
370
    25
100
AcDbCircle
 10
348.1579151956
 20
254.7968897006
 30
0.0
 40
2.0
100
AcDbArc
 50
90.0
 51
270.0
  0
LINE
  5
2B9
330
1F
100
AcDbEntity
  8
0
  6
Continuous
 62
     7
370
    25
100
AcDbLine
 10
340.1579151956
 20
266.7968897006
 30
0.0
 11
340.1579151956
 21
302.7968897006
 31
0.0
  0
ARC
  5
2BA
330
1F
100
AcDbEntity
  8
0
  6
Continuous
 62
     7
370
    25
100
AcDbCircle
 10
338.1579151956
 20
302.7968897006
 30
0.0
 40
2.0
100
AcDbArc
 50
0.0
 51
180.0
  0
LINE
  5
2BB
330
1F
100
AcDbEntity
  8
0
  6
Continuous
 62
     7
370
    25
100
AcDbLine
 10
336.1579151956
 20
302.7968897006
 30
0.0
 11
336.1579151956
 21
266.7968897006
 31
0.0
  0
ARC
  5
2BC
330
1F
100
AcDbEntity
  8
0
  6
Continuous
 62
     7
370
    25
100
AcDbCircle
 10
338.1579151956
 20
266.7968897006
 30
0.0
 40
2.0
100
AcDbArc
 50
180.0
 51
0.0
  0
LINE
  5
2BD
330
1F
100
AcDbEntity
  8
0
  6
Continuous
 62
     7
370
    25
100
AcDbLine
 10
447.1579151956
 20
312.7968897006
 30
0.0
 11
335.1579151956
 21
312.7968897006
 31
0.0
  0
LINE
  5
2BE
330
1F
100
AcDbEntity
  8
0
  6
Continuous
 62
     7
370
    25
100
AcDbLine
 10
452.1579151956
 20
251.7968897006
 30
0.0
 11
452.1579151956
 21
307.7968897006
 31
0.0
  0
LINE
  5
2BF
330
1F
100
AcDbEntity
  8
0
  6
Continuous
 62
     7
370
    25
100
AcDbLine
 10
335.1579151956
 20
246.7968897006
 30
0.0
 11
447.1579151956
 21
246.7968897006
 31
0.0
  0
LINE
  5
2C0
330
1F
100
AcDbEntity
  8
0
  6
Continuous
 62
     7
370
    25
100
AcDbLine
 10
330.1579151956
 20
307.7968897006
 30
0.0
 11
330.1579151956
 21
251.7968897006
 31
0.0
  0
ARC
  5
2C1
330
1F
100
AcDbEntity
  8
0
  6
Continuous
 62
     7
370
    25
100
AcDbCircle
 10
542.4415368895
 20
564.6161251284
 30
0.0
 40
2.0
100
AcDbArc
 50
180.0
 51
270.0
  0
LINE
  5
2C2
330
1F
100
AcDbEntity
  8
0
  6
Continuous
 62
     7
370
    25
100
AcDbLine
 10
540.4415368373
 20
567.6161245919
 30
0.0
 11
541.9415370832
 21
567.6161245919
 31
0.0
  0
LINE
  5
2C3
330
1F
100
AcDbEntity
  8
0
  6
Continuous
 62
     7
370
    25
100
AcDbLine
 10
541.9415370832
 20
567.6161245919
 30
0.0
 11
541.9415370832
 21
571.6161252476
 31
0.0
  0
LINE
  5
2C4
330
1F
100
AcDbEntity
  8
0
  6
Continuous
 62
     7
370
    25
100
AcDbLine
 10
541.9415370832
 20
571.6161252476
 30
0.0
 11
540.4415368373
 21
571.6161252476
 31
0.0
  0
LINE
  5
2C5
330
1F
100
AcDbEntity
  8
0
  6
Continuous
 62
     7
370
    25
100
AcDbLine
 10
552.4415369417
 20
571.6161252476
 30
0.0
 11
550.9415366958
 21
571.6161252476
 31
0.0
  0
LINE
  5
2C6
330
1F
100
AcDbEntity
  8
0
  6
Continuous
 62
     7
370
    25
100
AcDbLine
 10
550.9415366958
 20
571.6161252476
 30
0.0
 11
550.9415366958
 21
567.6161245919
 31
0.0
  0
LINE
  5
2C7
330
1F
100
AcDbEntity
  8
0
  6
Continuous
 62
     7
370
    25
100
AcDbLine
 10
550.9415366958
 20
567.6161245919
 30
0.0
 11
552.4415369417
 21
567.6161245919
 31
0.0
  0
ARC
  5
2C8
330
1F
100
AcDbEntity
  8
0
  6
Continuous
 62
     7
370
    25
100
AcDbCircle
 10
550.4415368895
 20
564.6161251284
 30
0.0
 40
2.0
100
AcDbArc
 50
270.0
 51
0.0
  0
LINE
  5
2C9
330
1F
100
AcDbEntity
  8
0
  6
Continuous
 62
     7
370
    25
100
AcDbLine
 10
540.4415368373
 20
591.6161250334
 30
0.0
 11
538.9415370571
 21
591.6161250334
 31
0.0
  0
LINE
  5
2CA
330
1F
100
AcDbEntity
  8
0
  6
Continuous
 62
     7
370
    25
100
AcDbLine
 10
538.9415370571
 20
591.6161250334
 30
0.0
 11
538.9415370571
 21
595.6161252234
 31
0.0
  0
LINE
  5
2CB
330
1F
100
AcDbEntity
  8
0
  6
Continuous
 62
     7
370
    25
100
AcDbLine
 10
553.9415367219
 20
595.6161252234
 30
0.0
 11
538.9415370571
 21
595.6161252234
 31
0.0
  0
LINE
  5
2CC
330
1F
100
AcDbEntity
  8
0
  6
Continuous
 62
     7
370
    25
100
AcDbLine
 10
553.9415367219
 20
591.6161250334
 30
0.0
 11
553.9415367219
 21
595.6161252234
 31
0.0
  0
LINE
  5
2CD
330
1F
100
AcDbEntity
  8
0
  6
Continuous
 62
     7
370
    25
100
AcDbLine
 10
553.9415367219
 20
591.6161250334
 30
0.0
 11
552.4415369417
 21
591.6161250334
 31
0.0
  0
LINE
  5
2CE
330
1F
100
AcDbEntity
  8
0
  6
Continuous
 62
     7
370
    25
100
AcDbLine
 10
552.4415369417
 20
564.6161259628
 30
0.0
 11
552.4415369417
 21
567.6161245919
 31
0.0
  0
LINE
  5
2CF
330
1F
100
AcDbEntity
  8
0
  6
Continuous
 62
     7
370
    25
100
AcDbLine
 10
550.4415370795
 20
562.616125635
 30
0.0
 11
542.4415366995
 21
562.616125635
 31
0.0
  0
LINE
  5
2D0
330
1F
100
AcDbEntity
  8
0
  6
Continuous
 62
     7
370
    25
100
AcDbLine
 10
540.4415368373
 20
564.6161259628
 30
0.0
 11
540.4415368373
 21
567.6161245919
 31
0.0
  0
LINE
  5
2D1
330
1F
100
AcDbEntity
  8
0
  6
Continuous
 62
     7
370
    25
100
AcDbLine
 10
552.4415369417
 20
571.6161252476
 30
0.0
 11
552.4415369417
 21
591.6161250334
 31
0.0
  0
LINE
  5
2D2
330
1F
100
AcDbEntity
  8
0
  6
Continuous
 62
     7
370
    25
100
AcDbLine
 10
540.4415368373
 20
571.6161252476
 30
0.0
 11
540.4415368373
 21
591.6161250334
 31
0.0
  0
ARC
  5
2D3
330
1F
100
AcDbEntity
  8
0
  6
Continuous
 62
     7
370
    25
100
AcDbCircle
 10
558.525249507
 20
564.6822275535
 30
0.0
 40
2.0
100
AcDbArc
 50
180.0
 51
270.0
  0
LINE
  5
2D4
330
1F
100
AcDbEntity
  8
0
  6
Continuous
 62
     7
370
    25
100
AcDbLine
 10
556.5252494548
 20
567.682227017
 30
0.0
 11
558.0252497007
 21
567.682227017
 31
0.0
  0
LINE
  5
2D5
330
1F
100
AcDbEntity
  8
0
  6
Continuous
 62
     7
370
    25
100
AcDbLine
 10
558.0252497007
 20
567.682227017
 30
0.0
 11
558.0252497007
 21
571.6822276727
 31
0.0
  0
LINE
  5
2D6
330
1F
100
AcDbEntity
  8
0
  6
Continuous
 62
     7
370
    25
100
AcDbLine
 10
558.0252497007
 20
571.6822276727
 30
0.0
 11
556.5252494548
 21
571.6822276727
 31
0.0
  0
LINE
  5
2D7
330
1F
100
AcDbEntity
  8
0
  6
Continuous
 62
     7
370
    25
100
AcDbLine
 10
568.5252495591
 20
571.6822276727
 30
0.0
 11
567.0252493132
 21
571.6822276727
 31
0.0
  0
LINE
  5
2D8
330
1F
100
AcDbEntity
  8
0
  6
Continuous
 62
     7
370
    25
100
AcDbLine
 10
567.0252493132
 20
571.6822276727
 30
0.0
 11
567.0252493132
 21
567.682227017
 31
0.0
  0
LINE
  5
2D9
330
1F
100
AcDbEntity
  8
0
  6
Continuous
 62
     7
370
    25
100
AcDbLine
 10
567.0252493132
 20
567.682227017
 30
0.0
 11
568.5252495591
 21
567.682227017
 31
0.0
  0
ARC
  5
2DA
330
1F
100
AcDbEntity
  8
0
  6
Continuous
 62
     7
370
    25
100
AcDbCircle
 10
566.525249507
 20
564.6822275535
 30
0.0
 40
2.0
100
AcDbArc
 50
270.0
 51
0.0
  0
LINE
  5
2DB
330
1F
100
AcDbEntity
  8
0
  6
Continuous
 62
     7
370
    25
100
AcDbLine
 10
556.5252494548
 20
591.6822274585
 30
0.0
 11
555.0252496746
 21
591.6822274585
 31
0.0
  0
LINE
  5
2DC
330
1F
100
AcDbEntity
  8
0
  6
Continuous
 62
     7
370
    25
100
AcDbLine
 10
555.0252496746
 20
591.6822274585
 30
0.0
 11
555.0252496746
 21
595.6822276485
 31
0.0
  0
LINE
  5
2DD
330
1F
100
AcDbEntity
  8
0
  6
Continuous
 62
     7
370
    25
100
AcDbLine
 10
570.0252493393
 20
595.6822276485
 30
0.0
 11
555.0252496746
 21
595.6822276485
 31
0.0
  0
LINE
  5
2DE
330
1F
100
AcDbEntity
  8
0
  6
Continuous
 62
     7
370
    25
100
AcDbLine
 10
570.0252493393
 20
591.6822274585
 30
0.0
 11
570.0252493393
 21
595.6822276485
 31
0.0
  0
LINE
  5
2DF
330
1F
100
AcDbEntity
  8
0
  6
Continuous
 62
     7
370
    25
100
AcDbLine
 10
570.0252493393
 20
591.6822274585
 30
0.0
 11
568.5252495591
 21
591.6822274585
 31
0.0
  0
LINE
  5
2E0
330
1F
100
AcDbEntity
  8
0
  6
Continuous
 62
     7
370
    25
100
AcDbLine
 10
568.5252495591
 20
564.6822283879
 30
0.0
 11
568.5252495591
 21
567.682227017
 31
0.0
  0
LINE
  5
2E1
330
1F
100
AcDbEntity
  8
0
  6
Continuous
 62
     7
370
    25
100
AcDbLine
 10
566.525249697
 20
562.6822280601
 30
0.0
 11
558.525249317
 21
562.6822280601
 31
0.0
  0
LINE
  5
2E2
330
1F
100
AcDbEntity
  8
0
  6
Continuous
 62
     7
370
    25
100
AcDbLine
 10
556.5252494548
 20
564.6822283879
 30
0.0
 11
556.5252494548
 21
567.682227017
 31
0.0
  0
LINE
  5
2E3
330
1F
100
AcDbEntity
  8
0
  6
Continuous
 62
     7
370
    25
100
AcDbLine
 10
568.5252495591
 20
571.6822276727
 30
0.0
 11
568.5252495591
 21
591.6822274585
 31
0.0
  0
LINE
  5
2E4
330
1F
100
AcDbEntity
  8
0
  6
Continuous
 62
     7
370
    25
100
AcDbLine
 10
556.5252494548
 20
571.6822276727
 30
0.0
 11
556.5252494548
 21
591.6822274585
 31
0.0
  0
ARC
  5
2E5
330
1F
100
AcDbEntity
  8
0
  6
Continuous
 62
     7
370
    25
100
AcDbCircle
 10
229.0107584194
 20
264.9863545756
 30
0.0
 40
1.0
100
AcDbArc
 50
108.0604719362
 51
270.0
  0
LINE
  5
2E6
330
1F
100
AcDbEntity
  8
0
  6
Continuous
 62
     7
370
    25
100
AcDbLine
 10
298.749465702
 20
263.9863549108
 30
0.0
 11
229.0107572656
 21
263.9863549108
 31
0.0
  0
ARC
  5
2E7
330
1F
100
AcDbEntity
  8
0
  6
Continuous
 62
     7
370
    25
100
AcDbCircle
 10
298.7494645482
 20
264.9863545756
 30
0.0
 40
1.000000000000005
100
AcDbArc
 50
270.0
 51
71.9395280638
  0
LINE
  5
2E8
330
1F
100
AcDbEntity
  8
0
  6
Continuous
 62
     7
370
    25
100
AcDbLine
 10
266.9803173951
 20
276.3976824778
 30
0.0
 11
299.0594843607
 21
265.9370845492
 31
0.0
  0
ARC
  5
2E9
330
1F
100
AcDbEntity
  8
0
  6
Continuous
 62
     7
370
    25
100
AcDbCircle
 10
263.8801114838
 20
266.8903841722
 30
0.0
 40
9.999999999999993
100
AcDbArc
 50
71.9395280638
 51
108.0604719362
  0
LINE
  5
2EA
330
1F
100
AcDbEntity
  8
0
  6
Continuous
 62
     7
370
    25
100
AcDbLine
 10
260.7799055725
 20
276.3976824778
 30
0.0
 11
228.7007386069
 21
265.9370845492
 31
0.0
  0
ARC
  5
2EB
330
1F
100
AcDbEntity
  8
0
  6
Continuous
 62
     7
370
    25
100
AcDbCircle
 10
252.5905391073
 20
278.9863545756
 30
0.0
 40
1.999999999999992
100
AcDbArc
 50
288.0604719362
 51
71.9395280638
  0
LINE
  5
2EC
330
1F
100
AcDbEntity
  8
0
  6
Continuous
 62
     7
370
    25
100
AcDbLine
 10
223.1201941352
 20
290.6998966197
 30
0.0
 11
253.2105801831
 21
280.8878142229
 31
0.0
  0
ARC
  5
2ED
330
1F
100
AcDbEntity
  8
0
  6
Continuous
 62
     7
370
    25
100
AcDbCircle
 10
221.8801114838
 20
286.8969774261
 30
0.0
 40
4.0
100
AcDbArc
 50
71.9395280638
 51
180.0
  0
LINE
  5
2EE
330
1F
100
AcDbEntity
  8
0
  6
Continuous
 62
     7
370
    25
100
AcDbLine
 10
217.8801113944
 20
271.0757313604
 30
0.0
 11
217.8801113944
 21
286.8969777907
 31
0.0
  0
ARC
  5
2EF
330
1F
100
AcDbEntity
  8
0
  6
Continuous
 62
     7
370
    25
100
AcDbCircle
 10
221.8801114838
 20
271.075731725
 30
0.0
 40
4.00000000000001
100
AcDbArc
 50
180.0
 51
288.0604719362
  0
LINE
  5
2F0
330
1F
100
AcDbEntity
  8
0
  6
Continuous
 62
     7
370
    25
100
AcDbLine
 10
253.2105801831
 20
277.0848949282
 30
0.0
 11
223.1201941352
 21
267.2728125314
 31
0.0
  0
ARC
  5
2F1
330
1F
100
AcDbEntity
  8
0
  6
Continuous
 62
     7
370
    25
100
AcDbCircle
 10
229.0107584194
 20
292.9863545756
 30
0.0
 40
1.0
100
AcDbArc
 50
90.0
 51
251.9395280638
  0
LINE
  5
2F2
330
1F
100
AcDbEntity
  8
0
  6
Continuous
 62
     7
370
    25
100
AcDbLine
 10
228.7007386069
 20
292.0356246019
 30
0.0
 11
260.7799055725
 21
281.5750266733
 31
0.0
  0
ARC
  5
2F3
330
1F
100
AcDbEntity
  8
0
  6
Continuous
 62
     7
370
    25
100
AcDbCircle
 10
263.8801114838
 20
291.082324979
 30
0.0
 40
9.999999999999993
100
AcDbArc
 50
251.9395280638
 51
288.0604719362
  0
LINE
  5
2F4
330
1F
100
AcDbEntity
  8
0
  6
Continuous
 62
     7
370
    25
100
AcDbLine
 10
299.0594843607
 20
292.0356246019
 30
0.0
 11
266.9803173951
 21
281.5750266733
 31
0.0
  0
ARC
  5
2F5
330
1F
100
AcDbEntity
  8
0
  6
Continuous
 62
     7
370
    25
100
AcDbCircle
 10
298.7494645482
 20
292.9863545756
 30
0.0
 40
1.0
100
AcDbArc
 50
288.0604719362
 51
90.0
  0
LINE
  5
2F6
330
1F
100
AcDbEntity
  8
0
  6
Continuous
 62
     7
370
    25
100
AcDbLine
 10
298.749465702
 20
293.9863542403
 30
0.0
 11
229.0107572656
 21
293.9863542403
 31
0.0
  0
ARC
  5
2F7
330
1F
100
AcDbEntity
  8
0
  6
Continuous
 62
     7
370
    25
100
AcDbCircle
 10
322.8801114838
 20
250.9863545756
 30
0.0
 40
5.000000000000028
100
AcDbArc
 50
270.0
 51
0.0
  0
LINE
  5
2F8
330
1F
100
AcDbEntity
  8
0
  6
Continuous
 62
     7
370
    25
100
AcDbLine
 10
204.8801111262
 20
245.9863547544
 30
0.0
 11
322.8801118414
 21
245.9863547544
 31
0.0
  0
ARC
  5
2F9
330
1F
100
AcDbEntity
  8
0
  6
Continuous
 62
     7
370
    25
100
AcDbCircle
 10
204.8801114838
 20
250.9863545756
 30
0.0
 40
5.0
100
AcDbArc
 50
180.0
 51
270.0
  0
LINE
  5
2FA
330
1F
100
AcDbEntity
  8
0
  6
Continuous
 62
     7
370
    25
100
AcDbLine
 10
199.880108444
 20
306.9863554398
 30
0.0
 11
199.880108444
 21
250.9863537113
 31
0.0
  0
ARC
  5
2FB
330
1F
100
AcDbEntity
  8
0
  6
Continuous
 62
     7
370
    25
100
AcDbCircle
 10
204.8801114838
 20
306.9863545756
 30
0.0
 40
5.0
100
AcDbArc
 50
90.0
 51
180.0
  0
LINE
  5
2FC
330
1F
100
AcDbEntity
  8
0
  6
Continuous
 62
     7
370
    25
100
AcDbLine
 10
322.8801118414
 20
311.9863543967
 30
0.0
 11
204.8801111262
 21
311.9863543967
 31
0.0
  0
ARC
  5
2FD
330
1F
100
AcDbEntity
  8
0
  6
Continuous
 62
     7
370
    25
100
AcDbCircle
 10
322.8801114838
 20
306.9863545756
 30
0.0
 40
5.000000000000057
100
AcDbArc
 50
0.0
 51
90.0
  0
LINE
  5
2FE
330
1F
100
AcDbEntity
  8
0
  6
Continuous
 62
     7
370
    25
100
AcDbLine
 10
327.8801145236
 20
250.9863537113
 30
0.0
 11
327.8801145236
 21
306.9863554398
 31
0.0
  0
CIRCLE
  5
2FF
330
1F
100
AcDbEntity
  8
0
  6
Continuous
 62
     7
370
    25
100
AcDbCircle
 10
319.8801114838
 20
253.9863545756
 30
0.0
 40
2.25
  0
CIRCLE
  5
300
330
1F
100
AcDbEntity
  8
0
  6
Continuous
 62
     7
370
    25
100
AcDbCircle
 10
319.8801114838
 20
303.9863545756
 30
0.0
 40
2.25
  0
CIRCLE
  5
301
330
1F
100
AcDbEntity
  8
0
  6
Continuous
 62
     7
370
    25
100
AcDbCircle
 10
207.8801114838
 20
303.9863545756
 30
0.0
 40
2.25
  0
CIRCLE
  5
302
330
1F
100
AcDbEntity
  8
0
  6
Continuous
 62
     7
370
    25
100
AcDbCircle
 10
207.8801114838
 20
253.9863545756
 30
0.0
 40
2.25
  0
ARC
  5
303
330
1F
100
AcDbEntity
  8
0
  6
Continuous
 62
     7
370
    25
100
AcDbCircle
 10
305.8801114838
 20
286.8969774261
 30
0.0
 40
3.999999999999964
100
AcDbArc
 50
0.0
 51
108.0604719362
  0
LINE
  5
304
330
1F
100
AcDbEntity
  8
0
  6
Continuous
 62
     7
370
    25
100
AcDbLine
 10
304.6400288324
 20
290.6998966197
 30
0.0
 11
274.5496427845
 21
280.8878142229
 31
0.0
  0
ARC
  5
305
330
1F
100
AcDbEntity
  8
0
  6
Continuous
 62
     7
370
    25
100
AcDbCircle
 10
275.1696838603
 20
278.9863545756
 30
0.0
 40
1.999999999999992
100
AcDbArc
 50
108.0604719362
 51
251.9395280638
  0
LINE
  5
306
330
1F
100
AcDbEntity
  8
0
  6
Continuous
 62
     7
370
    25
100
AcDbLine
 10
274.5496427845
 20
277.0848949282
 30
0.0
 11
304.6400288324
 21
267.2728125314
 31
0.0
  0
ARC
  5
307
330
1F
100
AcDbEntity
  8
0
  6
Continuous
 62
     7
370
    25
100
AcDbCircle
 10
305.8801114838
 20
271.075731725
 30
0.0
 40
4.000000000000019
100
AcDbArc
 50
251.9395280638
 51
0.0
  0
LINE
  5
308
330
1F
100
AcDbEntity
  8
0
  6
Continuous
 62
     7
370
    25
100
AcDbLine
 10
309.8801115732
 20
271.0757313604
 30
0.0
 11
309.8801115732
 21
286.8969777907
 31
0.0
  0
LINE
  5
309
330
1F
100
AcDbEntity
  8
0
  6
Continuous
 62
     7
370
    25
100
AcDbLine
 10
219.8801117222
 20
251.9863538752
 30
0.0
 11
307.8801112454
 21
251.9863538752
 31
0.0
  0
ARC
  5
30A
330
1F
100
AcDbEntity
  8
0
  6
Continuous
 62
     7
370
    25
100
AcDbCircle
 10
307.8801114838
 20
253.9863545756
 30
0.0
 40
2.0
100
AcDbArc
 50
270.0
 51
90.0
  0
LINE
  5
30B
330
1F
100
AcDbEntity
  8
0
  6
Continuous
 62
     7
370
    25
100
AcDbLine
 10
307.8801112454
 20
255.9863545308
 30
0.0
 11
219.8801117222
 21
255.9863545308
 31
0.0
  0
ARC
  5
30C
330
1F
100
AcDbEntity
  8
0
  6
Continuous
 62
     7
370
    25
100
AcDbCircle
 10
219.8801114838
 20
253.9863545756
 30
0.0
 40
2.0
100
AcDbArc
 50
90.0
 51
270.0
  0
LINE
  5
30D
330
1F
100
AcDbEntity
  8
0
  6
Continuous
 62
     7
370
    25
100
AcDbLine
 10
321.8801098149
 20
265.9863543073
 30
0.0
 11
321.8801098149
 21
291.9863548438
 31
0.0
  0
ARC
  5
30E
330
1F
100
AcDbEntity
  8
0
  6
Continuous
 62
     7
370
    25
100
AcDbCircle
 10
319.8801114838
 20
291.9863545756
 30
0.0
 40
2.0
100
AcDbArc
 50
0.0
 51
180.0
  0
LINE
  5
30F
330
1F
100
AcDbEntity
  8
0
  6
Continuous
 62
     7
370
    25
100
AcDbLine
 10
317.8801128845
 20
291.9863548438
 30
0.0
 11
317.8801128845
 21
265.9863543073
 31
0.0
  0
ARC
  5
310
330
1F
100
AcDbEntity
  8
0
  6
Continuous
 62
     7
370
    25
100
AcDbCircle
 10
319.8801114838
 20
265.9863545756
 30
0.0
 40
2.0
100
AcDbArc
 50
180.0
 51
0.0
  0
LINE
  5
311
330
1F
100
AcDbEntity
  8
0
  6
Continuous
 62
     7
370
    25
100
AcDbLine
 10
209.8801100831
 20
265.9863543073
 30
0.0
 11
209.8801100831
 21
291.9863548438
 31
0.0
  0
ARC
  5
312
330
1F
100
AcDbEntity
  8
0
  6
Continuous
 62
     7
370
    25
100
AcDbCircle
 10
207.8801114838
 20
291.9863545756
 30
0.0
 40
2.0
100
AcDbArc
 50
0.0
 51
180.0
  0
LINE
  5
313
330
1F
100
AcDbEntity
  8
0
  6
Continuous
 62
     7
370
    25
100
AcDbLine
 10
205.8801131527
 20
291.9863548438
 30
0.0
 11
205.8801131527
 21
265.9863543073
 31
0.0
  0
ARC
  5
314
330
1F
100
AcDbEntity
  8
0
  6
Continuous
 62
     7
370
    25
100
AcDbCircle
 10
207.8801114838
 20
265.9863545756
 30
0.0
 40
2.0
100
AcDbArc
 50
180.0
 51
0.0
  0
LINE
  5
315
330
1F
100
AcDbEntity
  8
0
  6
Continuous
 62
     7
370
    25
100
AcDbLine
 10
219.8801117222
 20
301.9863546203
 30
0.0
 11
307.8801112454
 21
301.9863546203
 31
0.0
  0
ARC
  5
316
330
1F
100
AcDbEntity
  8
0
  6
Continuous
 62
     7
370
    25
100
AcDbCircle
 10
307.8801114838
 20
303.9863545756
 30
0.0
 40
2.0
100
AcDbArc
 50
270.0
 51
90.0
  0
LINE
  5
317
330
1F
100
AcDbEntity
  8
0
  6
Continuous
 62
     7
370
    25
100
AcDbLine
 10
307.8801112454
 20
305.9863552759
 30
0.0
 11
219.8801117222
 21
305.9863552759
 31
0.0
  0
ARC
  5
318
330
1F
100
AcDbEntity
  8
0
  6
Continuous
 62
     7
370
    25
100
AcDbCircle
 10
219.8801114838
 20
303.9863545756
 30
0.0
 40
2.0
100
AcDbArc
 50
90.0
 51
270.0
  0
ARC
  5
319
330
1F
100
AcDbEntity
  8
0
  6
Continuous
 62
     7
370
    25
100
AcDbCircle
 10
63.5866138897
 20
333.5956630407
 30
0.0
 40
5.0
100
AcDbArc
 50
0.0
 51
90.0
  0
LINE
  5
31A
330
1F
100
AcDbEntity
  8
0
  6
Continuous
 62
     7
370
    25
100
AcDbLine
 10
68.5866137109
 20
235.5956626831
 30
0.0
 11
68.5866137109
 21
333.5956638454
 31
0.0
  0
ARC
  5
31B
330
1F
100
AcDbEntity
  8
0
  6
Continuous
 62
     7
370
    25
100
AcDbCircle
 10
63.5866138897
 20
235.5956630407
 30
0.0
 40
5.000000000000007
100
AcDbArc
 50
270.0
 51
0.0
  0
LINE
  5
31C
330
1F
100
AcDbEntity
  8
0
  6
Continuous
 62
     7
370
    25
100
AcDbLine
 10
7.5866130255
 20
230.5956600009
 30
0.0
 11
63.586614754
 21
230.5956600009
 31
0.0
  0
ARC
  5
31D
330
1F
100
AcDbEntity
  8
0
  6
Continuous
 62
     7
370
    25
100
AcDbCircle
 10
7.5866138897
 20
235.5956630407
 30
0.0
 40
5.000000000000004
100
AcDbArc
 50
180.0
 51
270.0
  0
LINE
  5
31E
330
1F
100
AcDbEntity
  8
0
  6
Continuous
 62
     7
370
    25
100
AcDbLine
 10
2.5866140686
 20
353.5956633983
 30
0.0
 11
2.5866140686
 21
235.5956626831
 31
0.0
  0
ARC
  5
31F
330
1F
100
AcDbEntity
  8
0
  6
Continuous
 62
     7
370
    25
100
AcDbCircle
 10
7.5866138897
 20
353.5956630407
 30
0.0
 40
5.000000000000001
100
AcDbArc
 50
90.0
 51
180.0
  0
LINE
  5
320
330
1F
100
AcDbEntity
  8
0
  6
Continuous
 62
     7
370
    25
100
AcDbLine
 10
12.6661003641
 20
358.5956660805
 30
0.0
 11
7.5866130255
 21
358.5956660805
 31
0.0
  0
ARC
  5
321
330
1F
100
AcDbEntity
  8
0
  6
Continuous
 62
     7
370
    25
100
AcDbCircle
 10
12.6661011583
 20
353.5956630407
 30
0.0
 40
5.0
100
AcDbArc
 50
18.0604719362
 51
90.0
  0
LINE
  5
322
330
1F
100
AcDbEntity
  8
0
  6
Continuous
 62
     7
370
    25
100
AcDbLine
 10
17.4197495989
 20
355.1457678674
 30
0.0
 11
33.6851542424
 21
305.2651943414
 31
0.0
  0
ARC
  5
323
330
1F
100
AcDbEntity
  8
0
  6
Continuous
 62
     7
370
    25
100
AcDbCircle
 10
35.5866138897
 20
305.8852354172
 30
0.0
 40
2.000000000000009
100
AcDbArc
 50
198.0604719362
 51
341.9395280638
  0
LINE
  5
324
330
1F
100
AcDbEntity
  8
0
  6
Continuous
 62
     7
370
    25
100
AcDbLine
 10
37.4880735371
 20
305.2651943414
 30
0.0
 11
47.2317381836
 21
335.1457645891
 31
0.0
  0
ARC
  5
325
330
1F
100
AcDbEntity
  8
0
  6
Continuous
 62
     7
370
    25
100
AcDbCircle
 10
51.9853874908
 20
333.5956630407
 30
0.0
 40
5.00000000000001
100
AcDbArc
 50
90.0
 51
161.9395280638
  0
LINE
  5
326
330
1F
100
AcDbEntity
  8
0
  6
Continuous
 62
     7
370
    25
100
AcDbLine
 10
63.586614754
 20
338.5956628023
 30
0.0
 11
51.9853883497
 21
338.5956628023
 31
0.0
  0
LINE
  5
327
330
1F
100
AcDbEntity
  8
0
  6
Continuous
 62
     7
370
    25
100
AcDbLine
 10
12.586613845
 20
250.5956632791
 30
0.0
 11
12.586613845
 21
338.5956628023
 31
0.0
  0
ARC
  5
328
330
1F
100
AcDbEntity
  8
0
  6
Continuous
 62
     7
370
    25
100
AcDbCircle
 10
10.5866138897
 20
338.5956630407
 30
0.0
 40
2.000000000000005
100
AcDbArc
 50
0.0
 51
180.0
  0
LINE
  5
329
330
1F
100
AcDbEntity
  8
0
  6
Continuous
 62
     7
370
    25
100
AcDbLine
 10
8.5866131894
 20
338.5956628023
 30
0.0
 11
8.5866131894
 21
250.5956632791
 31
0.0
  0
ARC
  5
32A
330
1F
100
AcDbEntity
  8
0
  6
Continuous
 62
     7
370
    25
100
AcDbCircle
 10
10.5866138897
 20
250.5956630407
 30
0.0
 40
2.000000000000005
100
AcDbArc
 50
180.0
 51
0.0
  0
LINE
  5
32B
330
1F
100
AcDbEntity
  8
0
  6
Continuous
 62
     7
370
    25
100
AcDbLine
 10
48.586614158
 20
240.59566164
 30
0.0
 11
22.5866136215
 21
240.59566164
 31
0.0
  0
ARC
  5
32C
330
1F
100
AcDbEntity
  8
0
  6
Continuous
 62
     7
370
    25
100
AcDbCircle
 10
22.5866138897
 20
238.5956630407
 30
0.0
 40
2.0
100
AcDbArc
 50
90.0
 51
270.0
  0
LINE
  5
32D
330
1F
100
AcDbEntity
  8
0
  6
Continuous
 62
     7
370
    25
100
AcDbLine
 10
22.5866136215
 20
236.5956647096
 30
0.0
 11
48.586614158
 21
236.5956647096
 31
0.0
  0
ARC
  5
32E
330
1F
100
AcDbEntity
  8
0
  6
Continuous
 62
     7
370
    25
100
AcDbCircle
 10
48.5866138897
 20
238.5956630407
 30
0.0
 40
2.0
100
AcDbArc
 50
270.0
 51
90.0
  0
CIRCLE
  5
32F
330
1F
100
AcDbEntity
  8
0
  6
Continuous
 62
     7
370
    25
100
AcDbCircle
 10
60.5866138897
 20
238.5956630407
 30
0.0
 40
2.25
  0
CIRCLE
  5
330
330
1F
100
AcDbEntity
  8
0
  6
Continuous
 62
     7
370
    25
100
AcDbCircle
 10
10.5866138897
 20
238.5956630407
 30
0.0
 40
2.25
  0
CIRCLE
  5
331
330
1F
100
AcDbEntity
  8
0
  6
Continuous
 62
     7
370
    25
100
AcDbCircle
 10
10.5866138897
 20
350.5956630407
 30
0.0
 40
2.249999999999943
  0
ARC
  5
332
330
1F
100
AcDbEntity
  8
0
  6
Continuous
 62
     7
370
    25
100
AcDbCircle
 10
21.5866138897
 20
259.7263099763
 30
0.0
 40
1.000000000000001
100
AcDbArc
 50
180.0
 51
341.9395280638
  0
LINE
  5
333
330
1F
100
AcDbEntity
  8
0
  6
Continuous
 62
     7
370
    25
100
AcDbLine
 10
22.5373438634
 20
259.4162901638
 30
0.0
 11
32.997941792
 21
291.4954571294
 31
0.0
  0
ARC
  5
334
330
1F
100
AcDbEntity
  8
0
  6
Continuous
 62
     7
370
    25
100
AcDbCircle
 10
23.4906434863
 20
294.5956630407
 30
0.0
 40
10.00000000000001
100
AcDbArc
 50
341.9395280638
 51
18.0604719362
  0
LINE
  5
335
330
1F
100
AcDbEntity
  8
0
  6
Continuous
 62
     7
370
    25
100
AcDbLine
 10
22.5373438634
 20
329.7750359176
 30
0.0
 11
32.997941792
 21
297.695868952
 31
0.0
  0
ARC
  5
336
330
1F
100
AcDbEntity
  8
0
  6
Continuous
 62
     7
370
    25
100
AcDbCircle
 10
21.5866138897
 20
329.4650161051
 30
0.0
 40
1.000000000000001
100
AcDbArc
 50
18.0604719362
 51
180.0
  0
LINE
  5
337
330
1F
100
AcDbEntity
  8
0
  6
Continuous
 62
     7
370
    25
100
AcDbLine
 10
20.586614225
 20
329.4650172589
 30
0.0
 11
20.586614225
 21
259.7263088224
 31
0.0
  0
ARC
  5
338
330
1F
100
AcDbEntity
  8
0
  6
Continuous
 62
     7
370
    25
100
AcDbCircle
 10
35.5866138897
 20
283.3060906642
 30
0.0
 40
1.999999999999992
100
AcDbArc
 50
18.0604719362
 51
161.9395280638
  0
LINE
  5
339
330
1F
100
AcDbEntity
  8
0
  6
Continuous
 62
     7
370
    25
100
AcDbLine
 10
23.8730718456
 20
253.8357456921
 30
0.0
 11
33.6851542424
 21
283.92613174
 31
0.0
  0
ARC
  5
33A
330
1F
100
AcDbEntity
  8
0
  6
Continuous
 62
     7
370
    25
100
AcDbCircle
 10
27.6759910392
 20
252.5956630407
 30
0.0
 40
4.000000000000028
100
AcDbArc
 50
161.9395280638
 51
270.0
  0
LINE
  5
33B
330
1F
100
AcDbEntity
  8
0
  6
Continuous
 62
     7
370
    25
100
AcDbLine
 10
43.4972371049
 20
248.5956629513
 30
0.0
 11
27.6759906746
 21
248.5956629513
 31
0.0
  0
ARC
  5
33C
330
1F
100
AcDbEntity
  8
0
  6
Continuous
 62
     7
370
    25
100
AcDbCircle
 10
43.4972367403
 20
252.5956630407
 30
0.0
 40
4.000000000000028
100
AcDbArc
 50
270.0
 51
18.0604719362
  0
LINE
  5
33D
330
1F
100
AcDbEntity
  8
0
  6
Continuous
 62
     7
370
    25
100
AcDbLine
 10
37.4880735371
 20
283.92613174
 30
0.0
 11
47.3001559339
 21
253.8357456921
 31
0.0
  0
ARC
  5
33E
330
1F
100
AcDbEntity
  8
0
  6
Continuous
 62
     7
370
    25
100
AcDbCircle
 10
49.5866138897
 20
259.7263099763
 30
0.0
 40
1.000000000000005
100
AcDbArc
 50
198.0604719362
 51
0.0
  0
LINE
  5
33F
330
1F
100
AcDbEntity
  8
0
  6
Continuous
 62
     7
370
    25
100
AcDbLine
 10
50.5866135545
 20
329.4650172589
 30
0.0
 11
50.5866135545
 21
259.7263088224
 31
0.0
  0
ARC
  5
340
330
1F
100
AcDbEntity
  8
0
  6
Continuous
 62
     7
370
    25
100
AcDbCircle
 10
49.5866138897
 20
329.4650161051
 30
0.0
 40
1.000000000000005
100
AcDbArc
 50
0.0
 51
161.9395280638
  0
LINE
  5
341
330
1F
100
AcDbEntity
  8
0
  6
Continuous
 62
     7
370
    25
100
AcDbLine
 10
38.1752859875
 20
297.695868952
 30
0.0
 11
48.6358839161
 21
329.7750359176
 31
0.0
  0
ARC
  5
342
330
1F
100
AcDbEntity
  8
0
  6
Continuous
 62
     7
370
    25
100
AcDbCircle
 10
47.6825842931
 20
294.5956630407
 30
0.0
 40
10.00000000000001
100
AcDbArc
 50
161.9395280638
 51
198.0604719362
  0
LINE
  5
343
330
1F
100
AcDbEntity
  8
0
  6
Continuous
 62
     7
370
    25
100
AcDbLine
 10
38.1752859875
 20
291.4954571294
 30
0.0
 11
48.6358839161
 21
259.4162901638
 31
0.0
  0
ARC
  5
344
330
1F
100
AcDbEntity
  8
0
  6
Continuous
 62
     7
370
    25
100
AcDbCircle
 10
60.5866138897
 20
250.5956630407
 30
0.0
 40
2.0
100
AcDbArc
 50
180.0
 51
0.0
  0
LINE
  5
345
330
1F
100
AcDbEntity
  8
0
  6
Continuous
 62
     7
370
    25
100
AcDbLine
 10
62.5866145901
 20
250.5956632791
 30
0.0
 11
62.5866145901
 21
328.4526211916
 31
0.0
  0
ARC
  5
346
330
1F
100
AcDbEntity
  8
0
  6
Continuous
 62
     7
370
    25
100
AcDbCircle
 10
60.5866138897
 20
328.452621755
 30
0.0
 40
2.0
100
AcDbArc
 50
0.0
 51
180.0
  0
LINE
  5
347
330
1F
100
AcDbEntity
  8
0
  6
Continuous
 62
     7
370
    25
100
AcDbLine
 10
58.5866139344
 20
328.4526211916
 30
0.0
 11
58.5866139344
 21
250.5956632791
 31
0.0
  0
ARC
  5
348
330
1F
100
AcDbEntity
  8
0
  6
Continuous
 62
     7
370
    25
100
AcDbCircle
 10
537.5392710956
 20
301.8763962264
 30
0.0
 40
2.000000000000009
100
AcDbArc
 50
198.0604719362
 51
341.9395280638
  0
LINE
  5
349
330
1F
100
AcDbEntity
  8
0
  6
Continuous
 62
     7
370
    25
100
AcDbLine
 10
555.7061353864
 20
351.1369286766
 30
0.0
 11
539.4407307429
 21
301.2563551505
 31
0.0
  0
ARC
  5
34A
330
1F
100
AcDbEntity
  8
0
  6
Continuous
 62
     7
370
    25
100
AcDbCircle
 10
560.459783827
 20
349.5868238499
 30
0.0
 40
5.000000000000005
100
AcDbArc
 50
90.0
 51
161.9395280638
  0
LINE
  5
34B
330
1F
100
AcDbEntity
  8
0
  6
Continuous
 62
     7
370
    25
100
AcDbLine
 10
560.4597846212
 20
354.5868268897
 30
0.0
 11
565.5392719598
 21
354.5868268897
 31
0.0
  0
ARC
  5
34C
330
1F
100
AcDbEntity
  8
0
  6
Continuous
 62
     7
370
    25
100
AcDbCircle
 10
565.5392710956
 20
349.5868238499
 30
0.0
 40
5.0
100
AcDbArc
 50
0.0
 51
90.0
  0
LINE
  5
34D
330
1F
100
AcDbEntity
  8
0
  6
Continuous
 62
     7
370
    25
100
AcDbLine
 10
570.5392709167
 20
349.5868242075
 30
0.0
 11
570.5392709167
 21
231.5868234923
 31
0.0
  0
ARC
  5
34E
330
1F
100
AcDbEntity
  8
0
  6
Continuous
 62
     7
370
    25
100
AcDbCircle
 10
565.5392710956
 20
231.5868238499
 30
0.0
 40
5.0
100
AcDbArc
 50
270.0
 51
0.0
  0
LINE
  5
34F
330
1F
100
AcDbEntity
  8
0
  6
Continuous
 62
     7
370
    25
100
AcDbLine
 10
565.5392719598
 20
226.58682081
 30
0.0
 11
509.5392702313
 21
226.58682081
 31
0.0
  0
ARC
  5
350
330
1F
100
AcDbEntity
  8
0
  6
Continuous
 62
     7
370
    25
100
AcDbCircle
 10
509.5392710956
 20
231.5868238499
 30
0.0
 40
5.000000000000057
100
AcDbArc
 50
180.0
 51
270.0
  0
LINE
  5
351
330
1F
100
AcDbEntity
  8
0
  6
Continuous
 62
     7
370
    25
100
AcDbLine
 10
504.5392712744
 20
231.5868234923
 30
0.0
 11
504.5392712744
 21
329.5868246545
 31
0.0
  0
ARC
  5
352
330
1F
100
AcDbEntity
  8
0
  6
Continuous
 62
     7
370
    25
100
AcDbCircle
 10
509.5392710956
 20
329.5868238499
 30
0.0
 40
5.000000000000057
100
AcDbArc
 50
90.0
 51
180.0
  0
LINE
  5
353
330
1F
100
AcDbEntity
  8
0
  6
Continuous
 62
     7
370
    25
100
AcDbLine
 10
509.5392702313
 20
334.5868236115
 30
0.0
 11
521.1404966356
 21
334.5868236115
 31
0.0
  0
ARC
  5
354
330
1F
100
AcDbEntity
  8
0
  6
Continuous
 62
     7
370
    25
100
AcDbCircle
 10
521.1404974945
 20
329.5868238499
 30
0.0
 40
5.000000000000041
100
AcDbArc
 50
18.0604719362
 51
90.0
  0
LINE
  5
355
330
1F
100
AcDbEntity
  8
0
  6
Continuous
 62
     7
370
    25
100
AcDbLine
 10
535.6378114482
 20
301.2563551505
 30
0.0
 11
525.8941468017
 21
331.1369253983
 31
0.0
  0
ARC
  5
356
330
1F
100
AcDbEntity
  8
0
  6
Continuous
 62
     7
370
    25
100
AcDbCircle
 10
562.5392710956
 20
334.5868238499
 30
0.0
 40
2.0
100
AcDbArc
 50
0.0
 51
180.0
  0
LINE
  5
357
330
1F
100
AcDbEntity
  8
0
  6
Continuous
 62
     7
370
    25
100
AcDbLine
 10
560.5392711403
 20
246.5868240883
 30
0.0
 11
560.5392711403
 21
334.5868236115
 31
0.0
  0
ARC
  5
358
330
1F
100
AcDbEntity
  8
0
  6
Continuous
 62
     7
370
    25
100
AcDbCircle
 10
562.5392710956
 20
246.5868238499
 30
0.0
 40
2.0
100
AcDbArc
 50
180.0
 51
0.0
  0
LINE
  5
359
330
1F
100
AcDbEntity
  8
0
  6
Continuous
 62
     7
370
    25
100
AcDbLine
 10
564.5392717959
 20
334.5868236115
 30
0.0
 11
564.5392717959
 21
246.5868240883
 31
0.0
  0
ARC
  5
35A
330
1F
100
AcDbEntity
  8
0
  6
Continuous
 62
     7
370
    25
100
AcDbCircle
 10
550.5392710956
 20
234.5868238499
 30
0.0
 40
2.0
100
AcDbArc
 50
270.0
 51
90.0
  0
LINE
  5
35B
330
1F
100
AcDbEntity
  8
0
  6
Continuous
 62
     7
370
    25
100
AcDbLine
 10
524.5392708273
 20
236.5868224492
 30
0.0
 11
550.5392713638
 21
236.5868224492
 31
0.0
  0
ARC
  5
35C
330
1F
100
AcDbEntity
  8
0
  6
Continuous
 62
     7
370
    25
100
AcDbCircle
 10
524.5392710956
 20
234.5868238499
 30
0.0
 40
2.0
100
AcDbArc
 50
90.0
 51
270.0
  0
LINE
  5
35D
330
1F
100
AcDbEntity
  8
0
  6
Continuous
 62
     7
370
    25
100
AcDbLine
 10
550.5392713638
 20
232.5868255188
 30
0.0
 11
524.5392708273
 21
232.5868255188
 31
0.0
  0
ARC
  5
35E
330
1F
100
AcDbEntity
  8
0
  6
Continuous
 62
     7
370
    25
100
AcDbCircle
 10
537.5392710956
 20
279.2972514734
 30
0.0
 40
2.000000000000009
100
AcDbArc
 50
18.0604719362
 51
161.9395280638
  0
LINE
  5
35F
330
1F
100
AcDbEntity
  8
0
  6
Continuous
 62
     7
370
    25
100
AcDbLine
 10
535.6378114482
 20
279.9172925492
 30
0.0
 11
525.8257290514
 21
249.8269065013
 31
0.0
  0
ARC
  5
360
330
1F
100
AcDbEntity
  8
0
  6
Continuous
 62
     7
370
    25
100
AcDbCircle
 10
529.628648245
 20
248.5868238499
 30
0.0
 40
4.0
100
AcDbArc
 50
161.9395280638
 51
270.0
  0
LINE
  5
361
330
1F
100
AcDbEntity
  8
0
  6
Continuous
 62
     7
370
    25
100
AcDbLine
 10
529.6286478804
 20
244.5868237605
 30
0.0
 11
545.4498943107
 21
244.5868237605
 31
0.0
  0
ARC
  5
362
330
1F
100
AcDbEntity
  8
0
  6
Continuous
 62
     7
370
    25
100
AcDbCircle
 10
545.4498939461
 20
248.5868238499
 30
0.0
 40
4.0
100
AcDbArc
 50
270.0
 51
18.0604719362
  0
LINE
  5
363
330
1F
100
AcDbEntity
  8
0
  6
Continuous
 62
     7
370
    25
100
AcDbLine
 10
549.2528131397
 20
249.8269065013
 30
0.0
 11
539.4407307429
 21
279.9172925492
 31
0.0
  0
CIRCLE
  5
364
330
1F
100
AcDbEntity
  8
0
  6
Continuous
 62
     7
370
    25
100
AcDbCircle
 10
562.5392710956
 20
346.5868238499
 30
0.0
 40
2.250000000000057
  0
CIRCLE
  5
365
330
1F
100
AcDbEntity
  8
0
  6
Continuous
 62
     7
370
    25
100
AcDbCircle
 10
562.5392710956
 20
234.5868238499
 30
0.0
 40
2.25
  0
CIRCLE
  5
366
330
1F
100
AcDbEntity
  8
0
  6
Continuous
 62
     7
370
    25
100
AcDbCircle
 10
512.5392710956
 20
234.5868238499
 30
0.0
 40
2.25
  0
LINE
  5
367
330
1F
100
AcDbEntity
  8
0
  6
Continuous
 62
     7
370
    25
100
AcDbLine
 10
550.5885411219
 20
255.407450973
 30
0.0
 11
540.1279431933
 21
287.4866179386
 31
0.0
  0
ARC
  5
368
330
1F
100
AcDbEntity
  8
0
  6
Continuous
 62
     7
370
    25
100
AcDbCircle
 10
551.5392710956
 20
255.7174707855
 30
0.0
 40
1.000000000000005
100
AcDbArc
 50
198.0604719362
 51
0.0
  0
LINE
  5
369
330
1F
100
AcDbEntity
  8
0
  6
Continuous
 62
     7
370
    25
100
AcDbLine
 10
552.5392707603
 20
325.4561780681
 30
0.0
 11
552.5392707603
 21
255.7174696316
 31
0.0
  0
ARC
  5
36A
330
1F
100
AcDbEntity
  8
0
  6
Continuous
 62
     7
370
    25
100
AcDbCircle
 10
551.5392710956
 20
325.4561769143
 30
0.0
 40
1.000000000000005
100
AcDbArc
 50
0.0
 51
161.9395280638
  0
LINE
  5
36B
330
1F
100
AcDbEntity
  8
0
  6
Continuous
 62
     7
370
    25
100
AcDbLine
 10
550.5885411219
 20
325.7661967268
 30
0.0
 11
540.1279431933
 21
293.6870297612
 31
0.0
  0
ARC
  5
36C
330
1F
100
AcDbEntity
  8
0
  6
Continuous
 62
     7
370
    25
100
AcDbCircle
 10
523.5392710956
 20
325.4561769143
 30
0.0
 40
1.0
100
AcDbArc
 50
18.0604719362
 51
180.0
  0
LINE
  5
36D
330
1F
100
AcDbEntity
  8
0
  6
Continuous
 62
     7
370
    25
100
AcDbLine
 10
522.5392714308
 20
325.4561780681
 30
0.0
 11
522.5392714308
 21
255.7174696316
 31
0.0
  0
ARC
  5
36E
330
1F
100
AcDbEntity
  8
0
  6
Continuous
 62
     7
370
    25
100
AcDbCircle
 10
523.5392710956
 20
255.7174707855
 30
0.0
 40
1.000000000000005
100
AcDbArc
 50
180.0
 51
341.9395280638
  0
LINE
  5
36F
330
1F
100
AcDbEntity
  8
0
  6
Continuous
 62
     7
370
    25
100
AcDbLine
 10
534.9505989978
 20
287.4866179386
 30
0.0
 11
524.4900010692
 21
255.407450973
 31
0.0
  0
ARC
  5
370
330
1F
100
AcDbEntity
  8
0
  6
Continuous
 62
     7
370
    25
100
AcDbCircle
 10
525.4433006922
 20
290.5868238499
 30
0.0
 40
10.00000000000005
100
AcDbArc
 50
341.9395280638
 51
18.0604719362
  0
LINE
  5
371
330
1F
100
AcDbEntity
  8
0
  6
Continuous
 62
     7
370
    25
100
AcDbLine
 10
534.9505989978
 20
293.6870297612
 30
0.0
 11
524.4900010692
 21
325.7661967268
 31
0.0
  0
LINE
  5
372
330
1F
100
AcDbEntity
  8
0
  6
Continuous
 62
     7
370
    25
100
AcDbLine
 10
510.5392703952
 20
246.5868240883
 30
0.0
 11
510.5392703952
 21
324.4437820007
 31
0.0
  0
ARC
  5
373
330
1F
100
AcDbEntity
  8
0
  6
Continuous
 62
     7
370
    25
100
AcDbCircle
 10
512.5392710956
 20
246.5868238499
 30
0.0
 40
2.0
100
AcDbArc
 50
180.0
 51
0.0
  0
ARC
  5
374
330
1F
100
AcDbEntity
  8
0
  6
Continuous
 62
     7
370
    25
100
AcDbCircle
 10
512.5392710956
 20
324.4437825642
 30
0.0
 40
2.0
100
AcDbArc
 50
0.0
 51
180.0
  0
ARC
  5
375
330
1F
100
AcDbEntity
  8
0
  6
Continuous
 62
     7
370
    25
100
AcDbCircle
 10
549.635241499
 20
290.5868238499
 30
0.0
 40
10.00000000000005
100
AcDbArc
 50
161.9395280638
 51
198.0604719362
  0
LINE
  5
376
330
1F
100
AcDbEntity
  8
0
  6
Continuous
 62
     7
370
    25
100
AcDbLine
 10
514.5392710509
 20
324.4437820007
 30
0.0
 11
514.5392710509
 21
246.5868240883
 31
0.0
  0
LINE
  5
377
330
1F
100
AcDbEntity
  8
0
  6
Continuous
 62
     7
370
    25
100
AcDbLine
 10
93.4939588883
 20
281.0554212874
 30
0.0
 11
97.493959544
 21
281.0554212874
 31
0.0
  0
LINE
  5
378
330
1F
100
AcDbEntity
  8
0
  6
Continuous
 62
     7
370
    25
100
AcDbLine
 10
97.493959544
 20
283.0554211496
 30
0.0
 11
97.493959544
 21
281.0554212874
 31
0.0
  0
LINE
  5
379
330
1F
100
AcDbEntity
  8
0
  6
Continuous
 62
     7
370
    25
100
AcDbLine
 10
93.4939588883
 20
283.0554211496
 30
0.0
 11
97.493959544
 21
283.0554211496
 31
0.0
  0
LINE
  5
37A
330
1F
100
AcDbEntity
  8
0
  6
Continuous
 62
     7
370
    25
100
AcDbLine
 10
93.4939588883
 20
283.0554211496
 30
0.0
 11
93.4939588883
 21
281.0554212874
 31
0.0
  0
LINE
  5
37B
330
1F
100
AcDbEntity
  8
0
  6
Continuous
 62
     7
370
    25
100
AcDbLine
 10
93.4939588883
 20
287.0554208739
 30
0.0
 11
97.493959544
 21
287.0554208739
 31
0.0
  0
LINE
  5
37C
330
1F
100
AcDbEntity
  8
0
  6
Continuous
 62
     7
370
    25
100
AcDbLine
 10
97.493959544
 20
289.0554212018
 30
0.0
 11
97.493959544
 21
287.0554208739
 31
0.0
  0
LINE
  5
37D
330
1F
100
AcDbEntity
  8
0
  6
Continuous
 62
     7
370
    25
100
AcDbLine
 10
93.4939588883
 20
289.0554212018
 30
0.0
 11
97.493959544
 21
289.0554212018
 31
0.0
  0
LINE
  5
37E
330
1F
100
AcDbEntity
  8
0
  6
Continuous
 62
     7
370
    25
100
AcDbLine
 10
93.4939588883
 20
289.0554212018
 30
0.0
 11
93.4939588883
 21
287.0554208739
 31
0.0
  0
LINE
  5
37F
330
1F
100
AcDbEntity
  8
0
  6
Continuous
 62
     7
370
    25
100
AcDbLine
 10
93.4939588883
 20
291.0554215296
 30
0.0
 11
97.493959544
 21
291.0554215296
 31
0.0
  0
LINE
  5
380
330
1F
100
AcDbEntity
  8
0
  6
Continuous
 62
     7
370
    25
100
AcDbLine
 10
97.493959544
 20
293.0554209261
 30
0.0
 11
97.493959544
 21
291.0554215296
 31
0.0
  0
LINE
  5
381
330
1F
100
AcDbEntity
  8
0
  6
Continuous
 62
     7
370
    25
100
AcDbLine
 10
93.4939588883
 20
293.0554209261
 30
0.0
 11
97.493959544
 21
293.0554209261
 31
0.0
  0
LINE
  5
382
330
1F
100
AcDbEntity
  8
0
  6
Continuous
 62
     7
370
    25
100
AcDbLine
 10
93.4939588883
 20
293.0554209261
 30
0.0
 11
93.4939588883
 21
291.0554215296
 31
0.0
  0
LINE
  5
383
330
1F
100
AcDbEntity
  8
0
  6
Continuous
 62
     7
370
    25
100
AcDbLine
 10
93.4939588883
 20
297.0554215817
 30
0.0
 11
97.493959544
 21
297.0554215817
 31
0.0
  0
LINE
  5
384
330
1F
100
AcDbEntity
  8
0
  6
Continuous
 62
     7
370
    25
100
AcDbLine
 10
97.493959544
 20
299.0554219096
 30
0.0
 11
97.493959544
 21
297.0554215817
 31
0.0
  0
LINE
  5
385
330
1F
100
AcDbEntity
  8
0
  6
Continuous
 62
     7
370
    25
100
AcDbLine
 10
93.4939588883
 20
299.0554219096
 30
0.0
 11
97.493959544
 21
299.0554219096
 31
0.0
  0
LINE
  5
386
330
1F
100
AcDbEntity
  8
0
  6
Continuous
 62
     7
370
    25
100
AcDbLine
 10
93.4939588883
 20
299.0554219096
 30
0.0
 11
93.4939588883
 21
297.0554215817
 31
0.0
  0
LINE
  5
387
330
1F
100
AcDbEntity
  8
0
  6
Continuous
 62
     7
370
    25
100
AcDbLine
 10
93.4939588883
 20
301.0554203747
 30
0.0
 11
97.493959544
 21
301.0554203747
 31
0.0
  0
LINE
  5
388
330
1F
100
AcDbEntity
  8
0
  6
Continuous
 62
     7
370
    25
100
AcDbLine
 10
97.493959544
 20
303.0554207026
 30
0.0
 11
97.493959544
 21
301.0554203747
 31
0.0
  0
LINE
  5
389
330
1F
100
AcDbEntity
  8
0
  6
Continuous
 62
     7
370
    25
100
AcDbLine
 10
93.4939588883
 20
303.0554207026
 30
0.0
 11
97.493959544
 21
303.0554207026
 31
0.0
  0
LINE
  5
38A
330
1F
100
AcDbEntity
  8
0
  6
Continuous
 62
     7
370
    25
100
AcDbLine
 10
93.4939588883
 20
303.0554207026
 30
0.0
 11
93.4939588883
 21
301.0554203747
 31
0.0
  0
LINE
  5
38B
330
1F
100
AcDbEntity
  8
0
  6
Continuous
 62
     7
370
    25
100
AcDbLine
 10
93.4939588883
 20
307.0554213582
 30
0.0
 11
97.493959544
 21
307.0554213582
 31
0.0
  0
LINE
  5
38C
330
1F
100
AcDbEntity
  8
0
  6
Continuous
 62
     7
370
    25
100
AcDbLine
 10
97.493959544
 20
309.055421686
 30
0.0
 11
97.493959544
 21
307.0554213582
 31
0.0
  0
LINE
  5
38D
330
1F
100
AcDbEntity
  8
0
  6
Continuous
 62
     7
370
    25
100
AcDbLine
 10
93.4939588883
 20
309.055421686
 30
0.0
 11
97.493959544
 21
309.055421686
 31
0.0
  0
LINE
  5
38E
330
1F
100
AcDbEntity
  8
0
  6
Continuous
 62
     7
370
    25
100
AcDbLine
 10
93.4939588883
 20
309.055421686
 30
0.0
 11
93.4939588883
 21
307.0554213582
 31
0.0
  0
LINE
  5
38F
330
1F
100
AcDbEntity
  8
0
  6
Continuous
 62
     7
370
    25
100
AcDbLine
 10
102.4939585009
 20
309.055421686
 30
0.0
 11
102.4939585009
 21
305.0554210304
 31
0.0
  0
LINE
  5
390
330
1F
100
AcDbEntity
  8
0
  6
Continuous
 62
     7
370
    25
100
AcDbLine
 10
104.4939606914
 20
305.0554210304
 30
0.0
 11
102.4939585009
 21
305.0554210304
 31
0.0
  0
LINE
  5
391
330
1F
100
AcDbEntity
  8
0
  6
Continuous
 62
     7
370
    25
100
AcDbLine
 10
104.4939606914
 20
309.055421686
 30
0.0
 11
104.4939606914
 21
305.0554210304
 31
0.0
  0
LINE
  5
392
330
1F
100
AcDbEntity
  8
0
  6
Continuous
 62
     7
370
    25
100
AcDbLine
 10
104.4939606914
 20
309.055421686
 30
0.0
 11
102.4939585009
 21
309.055421686
 31
0.0
  0
LINE
  5
393
330
1F
100
AcDbEntity
  8
0
  6
Continuous
 62
     7
370
    25
100
AcDbLine
 10
109.4939596483
 20
309.055421686
 30
0.0
 11
109.4939596483
 21
305.0554210304
 31
0.0
  0
LINE
  5
394
330
1F
100
AcDbEntity
  8
0
  6
Continuous
 62
     7
370
    25
100
AcDbLine
 10
111.4939599761
 20
305.0554210304
 30
0.0
 11
109.4939596483
 21
305.0554210304
 31
0.0
  0
LINE
  5
395
330
1F
100
AcDbEntity
  8
0
  6
Continuous
 62
     7
370
    25
100
AcDbLine
 10
111.4939599761
 20
309.055421686
 30
0.0
 11
111.4939599761
 21
305.0554210304
 31
0.0
  0
LINE
  5
396
330
1F
100
AcDbEntity
  8
0
  6
Continuous
 62
     7
370
    25
100
AcDbLine
 10
111.4939599761
 20
309.055421686
 30
0.0
 11
109.4939596483
 21
309.055421686
 31
0.0
  0
LINE
  5
397
330
1F
100
AcDbEntity
  8
0
  6
Continuous
 62
     7
370
    25
100
AcDbLine
 10
113.493960304
 20
309.055421686
 30
0.0
 11
113.493960304
 21
305.0554210304
 31
0.0
  0
LINE
  5
398
330
1F
100
AcDbEntity
  8
0
  6
Continuous
 62
     7
370
    25
100
AcDbLine
 10
115.4939606318
 20
305.0554210304
 30
0.0
 11
113.493960304
 21
305.0554210304
 31
0.0
  0
LINE
  5
399
330
1F
100
AcDbEntity
  8
0
  6
Continuous
 62
     7
370
    25
100
AcDbLine
 10
115.4939606318
 20
309.055421686
 30
0.0
 11
115.4939606318
 21
305.0554210304
 31
0.0
  0
LINE
  5
39A
330
1F
100
AcDbEntity
  8
0
  6
Continuous
 62
     7
370
    25
100
AcDbLine
 10
115.4939606318
 20
309.055421686
 30
0.0
 11
113.493960304
 21
309.055421686
 31
0.0
  0
LINE
  5
39B
330
1F
100
AcDbEntity
  8
0
  6
Continuous
 62
     7
370
    25
100
AcDbLine
 10
120.4939595887
 20
309.055421686
 30
0.0
 11
120.4939595887
 21
305.0554210304
 31
0.0
  0
LINE
  5
39C
330
1F
100
AcDbEntity
  8
0
  6
Continuous
 62
     7
370
    25
100
AcDbLine
 10
122.4939599165
 20
305.0554210304
 30
0.0
 11
120.4939595887
 21
305.0554210304
 31
0.0
  0
LINE
  5
39D
330
1F
100
AcDbEntity
  8
0
  6
Continuous
 62
     7
370
    25
100
AcDbLine
 10
122.4939599165
 20
309.055421686
 30
0.0
 11
122.4939599165
 21
305.0554210304
 31
0.0
  0
LINE
  5
39E
330
1F
100
AcDbEntity
  8
0
  6
Continuous
 62
     7
370
    25
100
AcDbLine
 10
122.4939599165
 20
309.055421686
 30
0.0
 11
120.4939595887
 21
309.055421686
 31
0.0
  0
LINE
  5
39F
330
1F
100
AcDbEntity
  8
0
  6
Continuous
 62
     7
370
    25
100
AcDbLine
 10
124.4939602444
 20
309.055421686
 30
0.0
 11
124.4939602444
 21
305.0554210304
 31
0.0
  0
LINE
  5
3A0
330
1F
100
AcDbEntity
  8
0
  6
Continuous
 62
     7
370
    25
100
AcDbLine
 10
126.4939596409
 20
305.0554210304
 30
0.0
 11
124.4939602444
 21
305.0554210304
 31
0.0
  0
LINE
  5
3A1
330
1F
100
AcDbEntity
  8
0
  6
Continuous
 62
     7
370
    25
100
AcDbLine
 10
126.4939596409
 20
309.055421686
 30
0.0
 11
126.4939596409
 21
305.0554210304
 31
0.0
  0
LINE
  5
3A2
330
1F
100
AcDbEntity
  8
0
  6
Continuous
 62
     7
370
    25
100
AcDbLine
 10
126.4939596409
 20
309.055421686
 30
0.0
 11
124.4939602444
 21
309.055421686
 31
0.0
  0
LINE
  5
3A3
330
1F
100
AcDbEntity
  8
0
  6
Continuous
 62
     7
370
    25
100
AcDbLine
 10
131.4939599948
 20
309.055421686
 30
0.0
 11
131.4939599948
 21
305.0554210304
 31
0.0
  0
LINE
  5
3A4
330
1F
100
AcDbEntity
  8
0
  6
Continuous
 62
     7
370
    25
100
AcDbLine
 10
133.4939599733
 20
305.0554210304
 30
0.0
 11
131.4939599948
 21
305.0554210304
 31
0.0
  0
LINE
  5
3A5
330
1F
100
AcDbEntity
  8
0
  6
Continuous
 62
     7
370
    25
100
AcDbLine
 10
133.4939599733
 20
309.055421686
 30
0.0
 11
133.4939599733
 21
305.0554210304
 31
0.0
  0
LINE
  5
3A6
330
1F
100
AcDbEntity
  8
0
  6
Continuous
 62
     7
370
    25
100
AcDbLine
 10
133.4939599733
 20
309.055421686
 30
0.0
 11
131.4939599948
 21
309.055421686
 31
0.0
  0
LINE
  5
3A7
330
1F
100
AcDbEntity
  8
0
  6
Continuous
 62
     7
370
    25
100
AcDbLine
 10
135.4939600683
 20
305.0554210304
 30
0.0
 11
137.4939600469
 21
305.0554210304
 31
0.0
  0
LINE
  5
3A8
330
1F
100
AcDbEntity
  8
0
  6
Continuous
 62
     7
370
    25
100
AcDbLine
 10
137.4939600469
 20
309.055421686
 30
0.0
 11
137.4939600469
 21
305.0554210304
 31
0.0
  0
LINE
  5
3A9
330
1F
100
AcDbEntity
  8
0
  6
Continuous
 62
     7
370
    25
100
AcDbLine
 10
135.4939600683
 20
309.055421686
 30
0.0
 11
137.4939600469
 21
309.055421686
 31
0.0
  0
LINE
  5
3AA
330
1F
100
AcDbEntity
  8
0
  6
Continuous
 62
     7
370
    25
100
AcDbLine
 10
135.4939600683
 20
309.055421686
 30
0.0
 11
135.4939600683
 21
305.0554210304
 31
0.0
  0
LINE
  5
3AB
330
1F
100
AcDbEntity
  8
0
  6
Continuous
 62
     7
370
    25
100
AcDbLine
 10
142.4939604008
 20
305.0554210304
 30
0.0
 11
144.4939597973
 21
305.0554210304
 31
0.0
  0
LINE
  5
3AC
330
1F
100
AcDbEntity
  8
0
  6
Continuous
 62
     7
370
    25
100
AcDbLine
 10
144.4939597973
 20
309.055421686
 30
0.0
 11
144.4939597973
 21
305.0554210304
 31
0.0
  0
LINE
  5
3AD
330
1F
100
AcDbEntity
  8
0
  6
Continuous
 62
     7
370
    25
100
AcDbLine
 10
142.4939604008
 20
309.055421686
 30
0.0
 11
144.4939597973
 21
309.055421686
 31
0.0
  0
LINE
  5
3AE
330
1F
100
AcDbEntity
  8
0
  6
Continuous
 62
     7
370
    25
100
AcDbLine
 10
142.4939604008
 20
309.055421686
 30
0.0
 11
142.4939604008
 21
305.0554210304
 31
0.0
  0
LINE
  5
3AF
330
1F
100
AcDbEntity
  8
0
  6
Continuous
 62
     7
370
    25
100
AcDbLine
 10
146.4939601251
 20
305.0554210304
 30
0.0
 11
148.493960453
 21
305.0554210304
 31
0.0
  0
LINE
  5
3B0
330
1F
100
AcDbEntity
  8
0
  6
Continuous
 62
     7
370
    25
100
AcDbLine
 10
148.493960453
 20
309.055421686
 30
0.0
 11
148.493960453
 21
305.0554210304
 31
0.0
  0
LINE
  5
3B1
330
1F
100
AcDbEntity
  8
0
  6
Continuous
 62
     7
370
    25
100
AcDbLine
 10
146.4939601251
 20
309.055421686
 30
0.0
 11
148.493960453
 21
309.055421686
 31
0.0
  0
LINE
  5
3B2
330
1F
100
AcDbEntity
  8
0
  6
Continuous
 62
     7
370
    25
100
AcDbLine
 10
146.4939601251
 20
309.055421686
 30
0.0
 11
146.4939601251
 21
305.0554210304
 31
0.0
  0
LINE
  5
3B3
330
1F
100
AcDbEntity
  8
0
  6
Continuous
 62
     7
370
    25
100
AcDbLine
 10
153.4939594099
 20
305.0554210304
 30
0.0
 11
155.4939597377
 21
305.0554210304
 31
0.0
  0
LINE
  5
3B4
330
1F
100
AcDbEntity
  8
0
  6
Continuous
 62
     7
370
    25
100
AcDbLine
 10
155.4939597377
 20
309.055421686
 30
0.0
 11
155.4939597377
 21
305.0554210304
 31
0.0
  0
LINE
  5
3B5
330
1F
100
AcDbEntity
  8
0
  6
Continuous
 62
     7
370
    25
100
AcDbLine
 10
153.4939594099
 20
309.055421686
 30
0.0
 11
155.4939597377
 21
309.055421686
 31
0.0
  0
LINE
  5
3B6
330
1F
100
AcDbEntity
  8
0
  6
Continuous
 62
     7
370
    25
100
AcDbLine
 10
153.4939594099
 20
309.055421686
 30
0.0
 11
153.4939594099
 21
305.0554210304
 31
0.0
  0
LINE
  5
3B7
330
1F
100
AcDbEntity
  8
0
  6
Continuous
 62
     7
370
    25
100
AcDbLine
 10
157.4939600655
 20
305.0554210304
 30
0.0
 11
159.4939603934
 21
305.0554210304
 31
0.0
  0
LINE
  5
3B8
330
1F
100
AcDbEntity
  8
0
  6
Continuous
 62
     7
370
    25
100
AcDbLine
 10
159.4939603934
 20
309.055421686
 30
0.0
 11
159.4939603934
 21
305.0554210304
 31
0.0
  0
LINE
  5
3B9
330
1F
100
AcDbEntity
  8
0
  6
Continuous
 62
     7
370
    25
100
AcDbLine
 10
157.4939600655
 20
309.055421686
 30
0.0
 11
159.4939603934
 21
309.055421686
 31
0.0
  0
LINE
  5
3BA
330
1F
100
AcDbEntity
  8
0
  6
Continuous
 62
     7
370
    25
100
AcDbLine
 10
157.4939600655
 20
309.055421686
 30
0.0
 11
157.4939600655
 21
305.0554210304
 31
0.0
  0
LINE
  5
3BB
330
1F
100
AcDbEntity
  8
0
  6
Continuous
 62
     7
370
    25
100
AcDbLine
 10
164.4939593503
 20
305.0554210304
 30
0.0
 11
166.4939615408
 21
305.0554210304
 31
0.0
  0
LINE
  5
3BC
330
1F
100
AcDbEntity
  8
0
  6
Continuous
 62
     7
370
    25
100
AcDbLine
 10
166.4939615408
 20
309.055421686
 30
0.0
 11
166.4939615408
 21
305.0554210304
 31
0.0
  0
LINE
  5
3BD
330
1F
100
AcDbEntity
  8
0
  6
Continuous
 62
     7
370
    25
100
AcDbLine
 10
164.4939593503
 20
309.055421686
 30
0.0
 11
166.4939615408
 21
309.055421686
 31
0.0
  0
LINE
  5
3BE
330
1F
100
AcDbEntity
  8
0
  6
Continuous
 62
     7
370
    25
100
AcDbLine
 10
164.4939593503
 20
309.055421686
 30
0.0
 11
164.4939593503
 21
305.0554210304
 31
0.0
  0
ARC
  5
3BF
330
1F
100
AcDbEntity
  8
0
  6
Continuous
 62
     7
370
    25
100
AcDbCircle
 10
89.9939600208
 20
306.5554211794
 30
0.0
 40
1.500000000000014
100
AcDbArc
 50
0.0
 51
180.0
  0
LINE
  5
3C0
330
1F
100
AcDbEntity
  8
0
  6
Continuous
 62
     7
370
    25
100
AcDbLine
 10
88.4939599314
 20
306.5554203449
 30
0.0
 11
88.4939599314
 21
283.5554212316
 31
0.0
  0
ARC
  5
3C1
330
1F
100
AcDbEntity
  8
0
  6
Continuous
 62
     7
370
    25
100
AcDbCircle
 10
89.9939600208
 20
283.5554211794
 30
0.0
 40
1.5
100
AcDbArc
 50
180.0
 51
0.0
  0
LINE
  5
3C2
330
1F
100
AcDbEntity
  8
0
  6
Continuous
 62
     7
370
    25
100
AcDbLine
 10
91.4939585605
 20
306.5554203449
 30
0.0
 11
91.4939585605
 21
283.5554212316
 31
0.0
  0
ARC
  5
3C3
330
1F
100
AcDbEntity
  8
0
  6
Continuous
 62
     7
370
    25
100
AcDbCircle
 10
75.4939600208
 20
248.5554211794
 30
0.0
 40
5.000000000000014
100
AcDbArc
 50
180.0
 51
270.0
  0
LINE
  5
3C4
330
1F
100
AcDbEntity
  8
0
  6
Continuous
 62
     7
370
    25
100
AcDbLine
 10
70.493956981
 20
311.5554230272
 30
0.0
 11
70.493956981
 21
248.5554220139
 31
0.0
  0
LINE
  5
3C5
330
1F
100
AcDbEntity
  8
0
  6
Continuous
 62
     7
370
    25
100
AcDbLine
 10
198.4939630607
 20
311.5554230272
 30
0.0
 11
70.493956981
 21
311.5554230272
 31
0.0
  0
LINE
  5
3C6
330
1F
100
AcDbEntity
  8
0
  6
Continuous
 62
     7
370
    25
100
AcDbLine
 10
198.4939630607
 20
248.5554220139
 30
0.0
 11
198.4939630607
 21
311.5554230272
 31
0.0
  0
ARC
  5
3C7
330
1F
100
AcDbEntity
  8
0
  6
Continuous
 62
     7
370
    25
100
AcDbCircle
 10
193.4939600208
 20
248.5554211794
 30
0.0
 40
5.0
100
AcDbArc
 50
270.0
 51
0.0
  0
LINE
  5
3C8
330
1F
100
AcDbEntity
  8
0
  6
Continuous
 62
     7
370
    25
100
AcDbLine
 10
75.4939596632
 20
243.5554193317
 30
0.0
 11
193.4939603785
 21
243.5554193317
 31
0.0
  0
CIRCLE
  5
3C9
330
1F
100
AcDbEntity
  8
0
  6
Continuous
 62
     7
370
    25
100
AcDbCircle
 10
190.4939600208
 20
251.5554211794
 30
0.0
 40
2.250000000000028
  0
CIRCLE
  5
3CA
330
1F
100
AcDbEntity
  8
0
  6
Continuous
 62
     7
370
    25
100
AcDbCircle
 10
78.4939600208
 20
251.5554211794
 30
0.0
 40
2.25
  0
LINE
  5
3CB
330
1F
100
AcDbEntity
  8
0
  6
Continuous
 62
     7
370
    25
100
AcDbLine
 10
192.4939583519
 20
263.5554207473
 30
0.0
 11
192.4939583519
 21
301.555421388
 31
0.0
  0
ARC
  5
3CC
330
1F
100
AcDbEntity
  8
0
  6
Continuous
 62
     7
370
    25
100
AcDbCircle
 10
190.4939600208
 20
301.5554211794
 30
0.0
 40
2.000000000000028
100
AcDbArc
 50
0.0
 51
180.0
  0
LINE
  5
3CD
330
1F
100
AcDbEntity
  8
0
  6
Continuous
 62
     7
370
    25
100
AcDbLine
 10
188.4939614215
 20
301.555421388
 30
0.0
 11
188.4939614215
 21
263.5554207473
 31
0.0
  0
ARC
  5
3CE
330
1F
100
AcDbEntity
  8
0
  6
Continuous
 62
     7
370
    25
100
AcDbCircle
 10
190.4939600208
 20
263.5554211794
 30
0.0
 40
2.000000000000028
100
AcDbArc
 50
180.0
 51
0.0
  0
LINE
  5
3CF
330
1F
100
AcDbEntity
  8
0
  6
Continuous
 62
     7
370
    25
100
AcDbLine
 10
90.4939602593
 20
249.5554203151
 30
0.0
 11
178.4939597824
 21
249.5554203151
 31
0.0
  0
ARC
  5
3D0
330
1F
100
AcDbEntity
  8
0
  6
Continuous
 62
     7
370
    25
100
AcDbCircle
 10
178.4939600208
 20
251.5554211794
 30
0.0
 40
2.0
100
AcDbArc
 50
270.0
 51
90.0
  0
LINE
  5
3D1
330
1F
100
AcDbEntity
  8
0
  6
Continuous
 62
     7
370
    25
100
AcDbLine
 10
178.4939597824
 20
253.5554209708
 30
0.0
 11
90.4939602593
 21
253.5554209708
 31
0.0
  0
ARC
  5
3D2
330
1F
100
AcDbEntity
  8
0
  6
Continuous
 62
     7
370
    25
100
AcDbCircle
 10
90.4939600208
 20
251.5554211794
 30
0.0
 40
2.0
100
AcDbArc
 50
90.0
 51
270.0
  0
LINE
  5
3D3
330
1F
100
AcDbEntity
  8
0
  6
Continuous
 62
     7
370
    25
100
AcDbLine
 10
80.4939586201
 20
263.5554207473
 30
0.0
 11
80.4939586201
 21
301.555421388
 31
0.0
  0
ARC
  5
3D4
330
1F
100
AcDbEntity
  8
0
  6
Continuous
 62
     7
370
    25
100
AcDbCircle
 10
78.4939600208
 20
301.5554211794
 30
0.0
 40
2.0
100
AcDbArc
 50
0.0
 51
180.0
  0
LINE
  5
3D5
330
1F
100
AcDbEntity
  8
0
  6
Continuous
 62
     7
370
    25
100
AcDbLine
 10
76.4939616898
 20
301.555421388
 30
0.0
 11
76.4939616898
 21
263.5554207473
 31
0.0
  0
ARC
  5
3D6
330
1F
100
AcDbEntity
  8
0
  6
Continuous
 62
     7
370
    25
100
AcDbCircle
 10
78.4939600208
 20
263.5554211794
 30
0.0
 40
2.0
100
AcDbArc
 50
180.0
 51
0.0
  0
ARC
  5
3D7
330
1F
100
AcDbEntity
  8
0
  6
Continuous
 62
     7
370
    25
100
AcDbCircle
 10
178.9939600208
 20
283.5554211794
 30
0.0
 40
1.5
100
AcDbArc
 50
180.0
 51
0.0
  0
LINE
  5
3D8
330
1F
100
AcDbEntity
  8
0
  6
Continuous
 62
     7
370
    25
100
AcDbLine
 10
180.4939601102
 20
306.5554203449
 30
0.0
 11
180.4939601102
 21
283.5554212316
 31
0.0
  0
ARC
  5
3D9
330
1F
100
AcDbEntity
  8
0
  6
Continuous
 62
     7
370
    25
100
AcDbCircle
 10
178.9939600208
 20
306.5554211794
 30
0.0
 40
1.5
100
AcDbArc
 50
0.0
 51
180.0
  0
LINE
  5
3DA
330
1F
100
AcDbEntity
  8
0
  6
Continuous
 62
     7
370
    25
100
AcDbLine
 10
177.4939614811
 20
306.5554203449
 30
0.0
 11
177.4939614811
 21
283.5554212316
 31
0.0
  0
CIRCLE
  5
3DB
330
1F
100
AcDbEntity
  8
0
  6
Continuous
 62
     7
370
    25
100
AcDbCircle
 10
102.4239600208
 20
296.4754211794
 30
0.0
 40
1.599999999999994
  0
CIRCLE
  5
3DC
330
1F
100
AcDbEntity
  8
0
  6
Continuous
 62
     7
370
    25
100
AcDbCircle
 10
102.4239600208
 20
268.5354211794
 30
0.0
 40
1.600000000000009
  0
CIRCLE
  5
3DD
330
1F
100
AcDbEntity
  8
0
  6
Continuous
 62
     7
370
    25
100
AcDbCircle
 10
154.4939600208
 20
301.5554211794
 30
0.0
 40
1.600000000000023
  0
LINE
  5
3DE
330
1F
100
AcDbEntity
  8
0
  6
Continuous
 62
     7
370
    25
100
AcDbLine
 10
171.4939604977
 20
283.0554211496
 30
0.0
 11
171.4939604977
 21
281.0554212874
 31
0.0
  0
LINE
  5
3DF
330
1F
100
AcDbEntity
  8
0
  6
Continuous
 62
     7
370
    25
100
AcDbLine
 10
175.4939611533
 20
281.0554212874
 30
0.0
 11
171.4939604977
 21
281.0554212874
 31
0.0
  0
LINE
  5
3E0
330
1F
100
AcDbEntity
  8
0
  6
Continuous
 62
     7
370
    25
100
AcDbLine
 10
175.4939611533
 20
283.0554211496
 30
0.0
 11
175.4939611533
 21
281.0554212874
 31
0.0
  0
LINE
  5
3E1
330
1F
100
AcDbEntity
  8
0
  6
Continuous
 62
     7
370
    25
100
AcDbLine
 10
175.4939611533
 20
283.0554211496
 30
0.0
 11
171.4939604977
 21
283.0554211496
 31
0.0
  0
LINE
  5
3E2
330
1F
100
AcDbEntity
  8
0
  6
Continuous
 62
     7
370
    25
100
AcDbLine
 10
171.4939604977
 20
289.0554212018
 30
0.0
 11
171.4939604977
 21
287.0554208739
 31
0.0
  0
LINE
  5
3E3
330
1F
100
AcDbEntity
  8
0
  6
Continuous
 62
     7
370
    25
100
AcDbLine
 10
175.4939611533
 20
287.0554208739
 30
0.0
 11
171.4939604977
 21
287.0554208739
 31
0.0
  0
LINE
  5
3E4
330
1F
100
AcDbEntity
  8
0
  6
Continuous
 62
     7
370
    25
100
AcDbLine
 10
175.4939611533
 20
289.0554212018
 30
0.0
 11
175.4939611533
 21
287.0554208739
 31
0.0
  0
LINE
  5
3E5
330
1F
100
AcDbEntity
  8
0
  6
Continuous
 62
     7
370
    25
100
AcDbLine
 10
175.4939611533
 20
289.0554212018
 30
0.0
 11
171.4939604977
 21
289.0554212018
 31
0.0
  0
LINE
  5
3E6
330
1F
100
AcDbEntity
  8
0
  6
Continuous
 62
     7
370
    25
100
AcDbLine
 10
171.4939604977
 20
293.0554209261
 30
0.0
 11
171.4939604977
 21
291.0554215296
 31
0.0
  0
LINE
  5
3E7
330
1F
100
AcDbEntity
  8
0
  6
Continuous
 62
     7
370
    25
100
AcDbLine
 10
175.4939611533
 20
291.0554215296
 30
0.0
 11
171.4939604977
 21
291.0554215296
 31
0.0
  0
LINE
  5
3E8
330
1F
100
AcDbEntity
  8
0
  6
Continuous
 62
     7
370
    25
100
AcDbLine
 10
175.4939611533
 20
293.0554209261
 30
0.0
 11
175.4939611533
 21
291.0554215296
 31
0.0
  0
LINE
  5
3E9
330
1F
100
AcDbEntity
  8
0
  6
Continuous
 62
     7
370
    25
100
AcDbLine
 10
175.4939611533
 20
293.0554209261
 30
0.0
 11
171.4939604977
 21
293.0554209261
 31
0.0
  0
LINE
  5
3EA
330
1F
100
AcDbEntity
  8
0
  6
Continuous
 62
     7
370
    25
100
AcDbLine
 10
171.4939604977
 20
299.0554219096
 30
0.0
 11
171.4939604977
 21
297.0554215817
 31
0.0
  0
LINE
  5
3EB
330
1F
100
AcDbEntity
  8
0
  6
Continuous
 62
     7
370
    25
100
AcDbLine
 10
175.4939611533
 20
297.0554215817
 30
0.0
 11
171.4939604977
 21
297.0554215817
 31
0.0
  0
LINE
  5
3EC
330
1F
100
AcDbEntity
  8
0
  6
Continuous
 62
     7
370
    25
100
AcDbLine
 10
175.4939611533
 20
299.0554219096
 30
0.0
 11
175.4939611533
 21
297.0554215817
 31
0.0
  0
LINE
  5
3ED
330
1F
100
AcDbEntity
  8
0
  6
Continuous
 62
     7
370
    25
100
AcDbLine
 10
175.4939611533
 20
299.0554219096
 30
0.0
 11
171.4939604977
 21
299.0554219096
 31
0.0
  0
LINE
  5
3EE
330
1F
100
AcDbEntity
  8
0
  6
Continuous
 62
     7
370
    25
100
AcDbLine
 10
171.4939604977
 20
303.0554207026
 30
0.0
 11
171.4939604977
 21
301.0554203747
 31
0.0
  0
LINE
  5
3EF
330
1F
100
AcDbEntity
  8
0
  6
Continuous
 62
     7
370
    25
100
AcDbLine
 10
175.4939611533
 20
301.0554203747
 30
0.0
 11
171.4939604977
 21
301.0554203747
 31
0.0
  0
LINE
  5
3F0
330
1F
100
AcDbEntity
  8
0
  6
Continuous
 62
     7
370
    25
100
AcDbLine
 10
175.4939611533
 20
303.0554207026
 30
0.0
 11
175.4939611533
 21
301.0554203747
 31
0.0
  0
LINE
  5
3F1
330
1F
100
AcDbEntity
  8
0
  6
Continuous
 62
     7
370
    25
100
AcDbLine
 10
175.4939611533
 20
303.0554207026
 30
0.0
 11
171.4939604977
 21
303.0554207026
 31
0.0
  0
LINE
  5
3F2
330
1F
100
AcDbEntity
  8
0
  6
Continuous
 62
     7
370
    25
100
AcDbLine
 10
171.4939604977
 20
309.055421686
 30
0.0
 11
171.4939604977
 21
307.0554213582
 31
0.0
  0
LINE
  5
3F3
330
1F
100
AcDbEntity
  8
0
  6
Continuous
 62
     7
370
    25
100
AcDbLine
 10
175.4939611533
 20
307.0554213582
 30
0.0
 11
171.4939604977
 21
307.0554213582
 31
0.0
  0
LINE
  5
3F4
330
1F
100
AcDbEntity
  8
0
  6
Continuous
 62
     7
370
    25
100
AcDbLine
 10
175.4939611533
 20
309.055421686
 30
0.0
 11
175.4939611533
 21
307.0554213582
 31
0.0
  0
LINE
  5
3F5
330
1F
100
AcDbEntity
  8
0
  6
Continuous
 62
     7
370
    25
100
AcDbLine
 10
175.4939611533
 20
309.055421686
 30
0.0
 11
171.4939604977
 21
309.055421686
 31
0.0
  0
MTEXT
  5
3F7
330
1F
100
AcDbEntity
  8
0
  6
Continuous
 62
     7
100
AcDbMText
 10
0.0
 20
28.9505231388
 30
0.0
 40
10.38
 41
0.0
 71
     1
 72
     1
  1
SOLIDWORKS Educational Product.
  7
SLDTEXTSTYLE0
 73
     1
 44
1.0
  0
MTEXT
  5
3F8
330
1F
100
AcDbEntity
  8
0
  6
Continuous
 62
     7
100
AcDbMText
 10
0.0
 20
13.3805231388
 30
0.0
 40
10.38
 41
0.0
 71
     1
 72
     1
  1
For Instructional Use Only.
  7
SLDTEXTSTYLE0
 73
     1
 44
1.0
  0
ENDSEC
  0
SECTION
  2
OBJECTS
  0
DICTIONARY
  5
C
330
0
100
AcDbDictionary
281
     1
  3
ACAD_GROUP
350
D
  3
ACAD_LAYOUT
350
1A
  3
ACAD_MLINESTYLE
350
17
  3
ACAD_PLOTSETTINGS
350
19
  3
ACAD_PLOTSTYLENAME
350
E
  3
ACAD_SCALELIST
350
47
  0
DICTIONARY
  5
D
102
{ACAD_REACTORS
330
C
102
}
330
C
100
AcDbDictionary
281
     1
  0
DICTIONARY
  5
1A
102
{ACAD_REACTORS
330
C
102
}
330
C
100
AcDbDictionary
281
     1
  3
Layout1
350
1E
  3
Layout2
350
26
  3
Model
350
22
  0
DICTIONARY
  5
17
102
{ACAD_REACTORS
330
C
102
}
330
C
100
AcDbDictionary
281
     1
  3
Standard
350
18
  0
DICTIONARY
  5
19
102
{ACAD_REACTORS
330
C
102
}
330
C
100
AcDbDictionary
281
     1
  0
ACDBDICTIONARYWDFLT
  5
E
102
{ACAD_REACTORS
330
C
102
}
330
C
100
AcDbDictionary
281
     1
  3
Normal
350
F
100
AcDbDictionaryWithDefault
340
F
  0
DICTIONARY
  5
47
102
{ACAD_REACTORS
330
C
102
}
330
C
100
AcDbDictionary
281
     1
  3
A0
350
48
  3
A1
350
49
  3
A2
350
4A
  3
A3
350
4B
  3
A4
350
4C
  3
A5
350
4D
  3
A6
350
4E
  3
A7
350
4F
  3
A8
350
50
  3
A9
350
51
  3
B0
350
52
  3
B1
350
53
  3
B2
350
54
  3
B3
350
55
  3
B4
350
56
  3
B5
350
57
  3
B6
350
58
  3
B7
350
59
  3
B8
350
5A
  3
B9
350
5B
  3
C0
350
5C
  3
C1
350
5D
  3
C2
350
5E
  3
C3
350
5F
  3
C4
350
60
  3
C5
350
61
  3
C6
350
62
  3
C7
350
63
  3
C8
350
64
  3
C9
350
65
  3
D0
350
66
  3
D1
350
67
  3
D2
350
68
  0
LAYOUT
  5
1E
102
{ACAD_REACTORS
330
1A
102
}
330
1A
100
AcDbPlotSettings
  1

  2
none_device
  4

  6

 40
0.0
 41
0.0
 42
0.0
 43
0.0
 44
0.0
 45
0.0
 46
0.0
 47
0.0
 48
0.0
 49
0.0
140
0.0
141
0.0
142
1.0
143
1.0
 70
   688
 72
     1
 73
     0
 74
     5
  7

 75
    16
147
1.0
148
0.0
149
0.0
100
AcDbLayout
  1
Layout1
 70
     1
 71
     1
 10
0.0
 20
0.0
 11
420.0
 21
297.0
 12
0.0
 22
0.0
 32
0.0
 14
1.0000000000E+20
 24
1.0000000000E+20
 34
1.0000000000E+20
 15
-1.0000000000E+20
 25
-1.0000000000E+20
 35
-1.0000000000E+20
146
0.0
 13
0.0
 23
0.0
 33
0.0
 16
1.0
 26
0.0
 36
0.0
 17
0.0
 27
1.0
 37
0.0
 76
     0
330
1B
  0
LAYOUT
  5
26
102
{ACAD_REACTORS
330
1A
102
}
330
1A
100
AcDbPlotSettings
  1

  2
none_device
  4

  6

 40
0.0
 41
0.0
 42
0.0
 43
0.0
 44
0.0
 45
0.0
 46
0.0
 47
0.0
 48
0.0
 49
0.0
140
0.0
141
0.0
142
1.0
143
1.0
 70
   688
 72
     1
 73
     0
 74
     5
  7

 75
    16
147
1.0
148
0.0
149
0.0
100
AcDbLayout
  1
Layout2
 70
     1
 71
     2
 10
0.0
 20
0.0
 11
0.0
 21
0.0
 12
0.0
 22
0.0
 32
0.0
 14
0.0
 24
0.0
 34
0.0
 15
0.0
 25
0.0
 35
0.0
146
0.0
 13
0.0
 23
0.0
 33
0.0
 16
1.0
 26
0.0
 36
0.0
 17
0.0
 27
1.0
 37
0.0
 76
     0
330
23
  0
LAYOUT
  5
22
102
{ACAD_REACTORS
330
1A
102
}
330
1A
100
AcDbPlotSettings
  1

  2
none_device
  4
Letter_(8.50_x_11.00_Inches)
  6

 40
6.35
 41
6.35
 42
6.35000508
 43
6.35000508
 44
215.9
 45
279.4
 46
0.0
 47
0.0
 48
0.0
 49
0.0
140
0.0
141
0.0
142
1.0
143
1.0
 70
  1712
 72
     1
 73
     0
 74
     0
  7

 75
     0
147
1.0
148
0.0
149
0.0
100
AcDbLayout
  1
Model
 70
     1
 71
     0
 10
0.0
 20
0.0
 11
900.0
 21
600.0
 12
0.0
 22
0.0
 32
0.0
 14
0.0
 24
0.0
 34
0.0
 15
900.0
 25
600.0
 35
0.0
146
0.0
 13
0.0
 23
0.0
 33
0.0
 16
1.0
 26
0.0
 36
0.0
 17
0.0
 27
1.0
 37
0.0
 76
     0
330
1F
331
29
  0
MLINESTYLE
  5
18
102
{ACAD_REACTORS
330
17
102
}
330
17
100
AcDbMlineStyle
  2
Standard
 70
     0
  3

 62
   256
 51
90.0
 52
90.0
 71
     2
 49
0.5
 62
   256
  6
BYLAYER
 49
-0.5
 62
   256
  6
BYLAYER
  0
ACDBPLACEHOLDER
  5
F
102
{ACAD_REACTORS
330
E
102
}
330
E
  0
SCALE
  5
48
102
{ACAD_REACTORS
330
47
102
}
330
47
100
AcDbScale
 70
     0
300
1:1
140
1.0
141
1.0
290
     1
  0
SCALE
  5
49
102
{ACAD_REACTORS
330
47
102
}
330
47
100
AcDbScale
 70
     0
300
1:2
140
1.0
141
2.0
290
     0
  0
SCALE
  5
4A
102
{ACAD_REACTORS
330
47
102
}
330
47
100
AcDbScale
 70
     0
300
1:4
140
1.0
141
4.0
290
     0
  0
SCALE
  5
4B
102
{ACAD_REACTORS
330
47
102
}
330
47
100
AcDbScale
 70
     0
300
1:5
140
1.0
141
5.0
290
     0
  0
SCALE
  5
4C
102
{ACAD_REACTORS
330
47
102
}
330
47
100
AcDbScale
 70
     0
300
1:8
140
1.0
141
8.0
290
     0
  0
SCALE
  5
4D
102
{ACAD_REACTORS
330
47
102
}
330
47
100
AcDbScale
 70
     0
300
1:10
140
1.0
141
10.0
290
     0
  0
SCALE
  5
4E
102
{ACAD_REACTORS
330
47
102
}
330
47
100
AcDbScale
 70
     0
300
1:16
140
1.0
141
16.0
290
     0
  0
SCALE
  5
4F
102
{ACAD_REACTORS
330
47
102
}
330
47
100
AcDbScale
 70
     0
300
1:20
140
1.0
141
20.0
290
     0
  0
SCALE
  5
50
102
{ACAD_REACTORS
330
47
102
}
330
47
100
AcDbScale
 70
     0
300
1:30
140
1.0
141
30.0
290
     0
  0
SCALE
  5
51
102
{ACAD_REACTORS
330
47
102
}
330
47
100
AcDbScale
 70
     0
300
1:40
140
1.0
141
40.0
290
     0
  0
SCALE
  5
52
102
{ACAD_REACTORS
330
47
102
}
330
47
100
AcDbScale
 70
     0
300
1:50
140
1.0
141
50.0
290
     0
  0
SCALE
  5
53
102
{ACAD_REACTORS
330
47
102
}
330
47
100
AcDbScale
 70
     0
300
1:100
140
1.0
141
100.0
290
     0
  0
SCALE
  5
54
102
{ACAD_REACTORS
330
47
102
}
330
47
100
AcDbScale
 70
     0
300
2:1
140
2.0
141
1.0
290
     0
  0
SCALE
  5
55
102
{ACAD_REACTORS
330
47
102
}
330
47
100
AcDbScale
 70
     0
300
4:1
140
4.0
141
1.0
290
     0
  0
SCALE
  5
56
102
{ACAD_REACTORS
330
47
102
}
330
47
100
AcDbScale
 70
     0
300
8:1
140
8.0
141
1.0
290
     0
  0
SCALE
  5
57
102
{ACAD_REACTORS
330
47
102
}
330
47
100
AcDbScale
 70
     0
300
10:1
140
10.0
141
1.0
290
     0
  0
SCALE
  5
58
102
{ACAD_REACTORS
330
47
102
}
330
47
100
AcDbScale
 70
     0
300
100:1
140
100.0
141
1.0
290
     0
  0
SCALE
  5
59
102
{ACAD_REACTORS
330
47
102
}
330
47
100
AcDbScale
 70
     0
300
1/128" = 1'-0"
140
0.0078125
141
12.0
290
     0
  0
SCALE
  5
5A
102
{ACAD_REACTORS
330
47
102
}
330
47
100
AcDbScale
 70
     0
300
1/64" = 1'-0"
140
0.015625
141
12.0
290
     0
  0
SCALE
  5
5B
102
{ACAD_REACTORS
330
47
102
}
330
47
100
AcDbScale
 70
     0
300
1/32" = 1'-0"
140
0.03125
141
12.0
290
     0
  0
SCALE
  5
5C
102
{ACAD_REACTORS
330
47
102
}
330
47
100
AcDbScale
 70
     0
300
1/16" = 1'-0"
140
0.0625
141
12.0
290
     0
  0
SCALE
  5
5D
102
{ACAD_REACTORS
330
47
102
}
330
47
100
AcDbScale
 70
     0
300
3/32" = 1'-0"
140
0.09375
141
12.0
290
     0
  0
SCALE
  5
5E
102
{ACAD_REACTORS
330
47
102
}
330
47
100
AcDbScale
 70
     0
300
1/8" = 1'-0"
140
0.125
141
12.0
290
     0
  0
SCALE
  5
5F
102
{ACAD_REACTORS
330
47
102
}
330
47
100
AcDbScale
 70
     0
300
3/16" = 1'-0"
140
0.1875
141
12.0
290
     0
  0
SCALE
  5
60
102
{ACAD_REACTORS
330
47
102
}
330
47
100
AcDbScale
 70
     0
300
1/4" = 1'-0"
140
0.25
141
12.0
290
     0
  0
SCALE
  5
61
102
{ACAD_REACTORS
330
47
102
}
330
47
100
AcDbScale
 70
     0
300
3/8" = 1'-0"
140
0.375
141
12.0
290
     0
  0
SCALE
  5
62
102
{ACAD_REACTORS
330
47
102
}
330
47
100
AcDbScale
 70
     0
300
1/2" = 1'-0"
140
0.5
141
12.0
290
     0
  0
SCALE
  5
63
102
{ACAD_REACTORS
330
47
102
}
330
47
100
AcDbScale
 70
     0
300
3/4" = 1'-0"
140
0.75
141
12.0
290
     0
  0
SCALE
  5
64
102
{ACAD_REACTORS
330
47
102
}
330
47
100
AcDbScale
 70
     0
300
1" = 1'-0"
140
1.0
141
12.0
290
     0
  0
SCALE
  5
65
102
{ACAD_REACTORS
330
47
102
}
330
47
100
AcDbScale
 70
     0
300
1-1/2" = 1'-0"
140
1.5
141
12.0
290
     0
  0
SCALE
  5
66
102
{ACAD_REACTORS
330
47
102
}
330
47
100
AcDbScale
 70
     0
300
3" = 1'-0"
140
3.0
141
12.0
290
     0
  0
SCALE
  5
67
102
{ACAD_REACTORS
330
47
102
}
330
47
100
AcDbScale
 70
     0
300
6" = 1'-0"
140
6.0
141
12.0
290
     0
  0
SCALE
  5
68
102
{ACAD_REACTORS
330
47
102
}
330
47
100
AcDbScale
 70
     0
300
1'-0" = 1'-0"
140
12.0
141
12.0
290
     0
  0
ENDSEC
  0
EOF
